Cifras e Tablaturas
Seether

Seether

Something Else

Cifras Cancelar Versão de Impressão
cifras

Seether - Something Else

fixar na tela  
Exibindo: vídeo-aula ver clipes redimensionar

Tom:

  
Intro 
e|---------------------------------------------------------------------------| 
B|---------------------------------------------------------------------------| 
G|---------------------------------------------------------------------------| 
D|---5-5-5-5-5-5-5-5/2-2-2-2-2-2/-9-9-9-9-9-9-9-9-9-9-9-9-9-9-9-9------------| 
A|---5-5-5-5-5-5-5-5/2-2-2-2-2-2/-9-9-9-9-9-9-9-9-9-9-9-9-9-9-9-9------------| (ex.3) 
D|---5-5-5-5-5-5-5-5/2-2-2-2-2-2/-9-9-9-9-9-9-9-9-9-9-9-9-9-9-9-9------------| 

Starts right after first riff 
e|---------------------------------------------------------------------------| 
B|---------------------------------------------------------------------------| 
G|---------------------------------------------------------------------------| 
D|---------------------------------------------------------------------------| 
A|---4b5~5-5r4-4/2-2p0-0h2---------------------------------------------------| (ex.2) 
D|---------------------------------------------------------------------------| 

Verse 
clean\delay 
e|---------------------------------------------------7-----------------------| 
B|-------------12------------------10--------7---7---------------------------| 
G|-11-11-11-11----11-11-11-9-9-9-9----9-9-9----7---7---7-7/9-4-4-4-4-4-4-4-4-| 
D|---------------------------------------------------------------------------| 
A|---------------------------------------------------------------------------| (ex.4) 
D|---------------------------------------------------------------------------| 

Starts right after second clean riff 
e|---------------------------------------------------------------------------| 
B|---------------------------------------------------------------------------| 
G|---------------------------------------------------------------------------| 
D|---------------------------------------------------------------------------| 
A|---4b5~5-5r4-4/2-2p0-0h2-5-2-----------------------------------------------| (ex.2) 
D|---------------------------------------------------------------------------| 

Squeal at the end of fourth clean 
e|---------------------------------------------------------------------------| 
B|----5~---------------------------------------------------------------------| 
G|---------------------------------------------------------------------------| 
D|---------------------------------------------------------------------------| 
A|---------------------------------------------------------------------------| 
D|---------------------------------------------------------------------------| 

Chorus 
e|---------------------------------------------------------------------------| 
B|---------------------------------------------------------------------------| 
G|---------------------------------------------------------------------------| 
D|---5-5-5-5-5-5-5-5/2-2-2-2-2-2/-9-9-9-9-9-9-9-9-9-9-9-9-9-9-9-9------------| 
A|---5-5-5-5-5-5-5-5/2-2-2-2-2-2/-9-9-9-9-9-9-9-9-9-9-9-9-9-9-9-9------------| (ex.3) 
D|---5-5-5-5-5-5-5-5/2-2-2-2-2-2/-9-9-9-9-9-9-9-9-9-9-9-9-9-9-9-9------------| 

Starts right after first riff 
e|---------------------------------------------------------------------------| 
B|---------------------------------------------------------------------------| 
G|---------------------------------------------------------------------------| 
D|---------------------------------------------------------------------------| 
A|---4b5~5-5r4-4/2-2p0-0h2---------------------------------------------------| (ex.2) 
D|---------------------------------------------------------------------------| 

clean\delay 
e|---------------------------------------------------7-----------------------| 
B|-------------12------------------10--------7---7---------------------------| 
G|-11-11-11-11----11-11-11-9-9-9-9----9-9-9----7---7---7-7/9-4-4-4-4-4-4-4-4-| 
D|---------------------------------------------------------------------------| 
A|---------------------------------------------------------------------------| (ex.4) 
D|---------------------------------------------------------------------------| 

Starts right after second clean riff 
e|---------------------------------------------------------------------------| 
B|---------------------------------------------------------------------------| 
G|---------------------------------------------------------------------------| 
D|---------------------------------------------------------------------------| 
A|---4b5~5-5r4-4/2-2p0-0h2-5-2-----------------------------------------------| (ex.2) 
D|---------------------------------------------------------------------------| 

Squeal at the end of fourth clean 
e|---------------------------------------------------------------------------| 
B|----5~---------------------------------------------------------------------| 
G|---------------------------------------------------------------------------| 
D|---------------------------------------------------------------------------| 
A|---------------------------------------------------------------------------| 
D|---------------------------------------------------------------------------| 

Chorus 
e|---------------------------------------------------------------------------| 
B|---------------------------------------------------------------------------| 
G|---------------------------------------------------------------------------| 
D|---5-5-5-5-5-5-5-5/2-2-2-2-2-2/-9-9-9-9-9-9-9-9-9-9-9-9-9-9-9-9------------| 
A|---5-5-5-5-5-5-5-5/2-2-2-2-2-2/-9-9-9-9-9-9-9-9-9-9-9-9-9-9-9-9------------| (ex.4) 
D|---5-5-5-5-5-5-5-5/2-2-2-2-2-2/-9-9-9-9-9-9-9-9-9-9-9-9-9-9-9-9------------| 

Starts right after second clean riff 
e|---------------------------------------------------------------------------| 
B|---------------------------------------------------------------------------| 
G|---------------------------------------------------------------------------| 
D|---------------------------------------------------------------------------| 
A|---4b5~5-5r4-4/2-2p0-0h2---------------------------------------------------| (ex.2) 
D|---------------------------------------------------------------------------| 

Bridge 
e|---------------------------------------------------------------------------| 
B|---------------------------------------------------------------------------| 
G|---------------------------------------------------------------------------| 
D|---------------------------------------------------------------------------| 
A|---------------------------------------------------------------------------| 
D|--5~-5/2~-9~-9/4-----------------------------------------------------------| 

Solo 
e|---------------------------------------------------------------------------| 
B|---------------------------------------------------------------------------| 
G|---------------------------------------------------------------------------| 
D|---5-5-5-5-5-5-5-5/2-2-2-2-2-2/-9-9-9-9-9-9-9-9-9-9-9-9-9-9-9-9------------| 
A|---5-5-5-5-5-5-5-5/2-2-2-2-2-2/-9-9-9-9-9-9-9-9-9-9-9-9-9-9-9-9------------| (ex.16) 
D|---5-5-5-5-5-5-5-5/2-2-2-2-2-2/-9-9-9-9-9-9-9-9-9-9-9-9-9-9-9-9------------| 

Outro 
e|---------------------------------------------------------------------------| 
B|---------------------------------------------------------------------------| 
G|---------------------------------------------------------------------------| 
D|---------------------------------------------------------------------------| 
A|---------------------------------------------------------------------------| 
D|--5~-5/2~-9~-9/4-----------------------------------------------------------| 

************************************ 

| ~   Hold note 
| b   Bend 
| /   Slide 
| h   Hammer on 
| p   Pull off 
| r   Release bend 
************************************ 
  

top 5 | seether
top heavy metal
Outras músicas do artista letras do(a) Seether
Top cifras »Top artistas »
Petaxxon Comunicação Online
Cifras.com.br - Melhor e mais completo site de cifras e tablaturas do Brasil
Mais de 1 milhão de acordes de músicas cadastradas desde 2003
As informações contidas no nosso site são colaborações de seus usuários e podem conter erros, sendo assim, não nos responsabilizamos sobre nenhuma destas.
close
menos
mais
close
Cor dos acordes:

Cor da letra:

 

save
close
close
 
redimensionar