Cifras e Tablaturas
Set It Off

Set It Off

Uncontainable

Cifras Cancelar Versão de Impressão
cifras

Set It Off - Uncontainable

fixar na tela  
Exibindo: vídeo-aula ver clipes redimensionar
  verse 1 

(Comin' out the gate I'm swinging..) 

e|---------------------------------------------------------------------------| 
B|---------------------------------------------------------------------------| 
G|---------------------------------------------------------------------------|   X6 
D|-9-9-9---4-4-4-4-4---5-5-5---2-2-2-2-2-------------------------------------|     
A|-9-9-9---4-4-4-4-4---5-5-5---2-2-2-2-2-------------------------------------| 
E|-7-7-7---2-2-2-2-2---3-3-3---0-0-0-0-0-------------------------------------| 


Chorus 

(Hey, we're takin' our crown..) 

e|---------------------------------------------------------------------------| 
B|---------------------------------------------------------------------------| 
G|---------------------------------------------------------------------------| 
D|-9-9-9-9-9-9-9-9---7-7-7-7-7-7-7-7---5-5-5-5-5-5-5-5---4-4-4-4-8-8-8-8-----| 
A|-9-9-9-9-9-9-9-9---7-7-7-7-7-7-7-7---5-5-5-5-5-5-5-5---4-4-4-4-8-8-8-8-----| 
E|-7-7-7-7-7-7-7-7---5-5-5-5-5-5-5-5---3-3-3-3-3-3-3-3---2-2-2-2-6-6-6-6-----| 

e|---------------------------------------------------------------------------| 
B|---------------------------------------------------------------------------| 
G|---------------------------------------------------------------------------| 
D|-9-9-9-9-9-9-9-9---7-7-7-7-7-7-7-7---5-5-5-5-5-5-5-5---4-4-4-4-8-8-8-8-----| 
A|-9-9-9-9-9-9-9-9---7-7-7-7-7-7-7-7---5-5-5-5-5-5-5-5---4-4-4-4-8-8-8-8-----| 
E|-7-7-7-7-7-7-7-7---5-5-5-5-5-5-5-5---3-3-3-3-3-3-3-3---2-2-2-2-6-6-6-6-----| 


verse 2 

(Throwin' off the chains, I'm runnin'..) 

e|---------------------------------------------------------------------------| 
B|---------------------------------------------------------------------------| 
G|---------------------------------------------------------------------------|   X4 
D|-9-9-9---4-4-4-4-4---5-5-5---2-2-2-2-2-------------------------------------|     
A|-9-9-9---4-4-4-4-4---5-5-5---2-2-2-2-2-------------------------------------| 
E|-7-7-7---2-2-2-2-2---3-3-3---0-0-0-0-0-------------------------------------| 


Chorus 

(Hey, we're takin' our crown..) 

e|---------------------------------------------------------------------------| 
B|---------------------------------------------------------------------------| 
G|---------------------------------------------------------------------------| 
D|-9-9-9-9-9-9-9-9---7-7-7-7-7-7-7-7---5-5-5-5-5-5-5-5---4-4-4-4-8-8-8-8-----| 
A|-9-9-9-9-9-9-9-9---7-7-7-7-7-7-7-7---5-5-5-5-5-5-5-5---4-4-4-4-8-8-8-8-----| 
E|-7-7-7-7-7-7-7-7---5-5-5-5-5-5-5-5---3-3-3-3-3-3-3-3---2-2-2-2-6-6-6-6-----| 

e|---------------------------------------------------------------------------| 
B|---------------------------------------------------------------------------| 
G|---------------------------------------------------------------------------| 
D|-9-9-9-9-9-9-9-9---7-7-7-7-7-7-7-7---5-5-5-5-5-5-5-5---4-4-4-4-8-8-8-8-----| 
A|-9-9-9-9-9-9-9-9---7-7-7-7-7-7-7-7---5-5-5-5-5-5-5-5---4-4-4-4-8-8-8-8-----| 
E|-7-7-7-7-7-7-7-7---5-5-5-5-5-5-5-5---3-3-3-3-3-3-3-3---2-2-2-2-6-6-6-6-----| 


Bridge 

(Keep swingin', keep dreamin'..) 

e|---------------------------------------------------------------------------| 
B|---------------------------------------------------------------------------| 
G|---------------------4-4-4-------------------------------------------------| 
D|-5-5-5---7-7-7-7-7---4-4-4---4-4-4-4-4-------------------------------------| 
A|-5-5-5---7-7-7-7-7---2-2-2---4-4-4-4-4-------------------------------------| 
E|-3-3-3---5-5-5-5-5-----------2-2-2-2-2-------------------------------------|               
                                    
e|---------------------------------------------------------------------------| 
B|---------------------------------------------------------------------------| 
G|---------------------4-4-4-4-4-4-4-4---------------------------------------| 
D|-5-5-5---7-7-7-7-7---4-4-4-4-4-4-4-4---------------------------------------| 
A|-5-5-5---7-7-7-7-7---2-2-2-2-2-2-2-2---------------------------------------| 
E|-3-3-3---5-5-5-5-5---------------------------------------------------------| 

e|---------------------------------------------------------------------------| 
B|---------------------------------------------------------------------------| 
G|---------------------4-4-4-------------------------------------------------| 
D|-5-5-5---7-7-7-7-7---4-4-4---4-4-4-4-4-------------------------------------| 
A|-5-5-5---7-7-7-7-7---2-2-2---4-4-4-4-4-------------------------------------| 
E|-3-3-3---5-5-5-5-5-----------2-2-2-2-2-------------------------------------|               
                                    
e|---------------------------------------------------------------------------| 
B|---------------------------------------------------------------------------| 
G|---------------------4-4-4-4-4-4-4-4---------------------------------------| 
D|-5-5-5---7-7-7-7-7---4-4-4-4-4-4-4-4---------------------------------------| 
A|-5-5-5---7-7-7-7-7---2-2-2-2-2-2-2-2---------------------------------------| 
E|-3-3-3---5-5-5-5-5---------------------------------------------------------| 


Chorus 

(Hey, we're takin' our crown..) 

e|---------------------------------------------------------------------------| 
B|---------------------------------------------------------------------------| 
G|---------------------------------------------------------------------------| 
D|-9-9-9-9-9-9-9-9---7-7-7-7-7-7-7-7---5-5-5-5-5-5-5-5---4-4-4-4-8-8-8-8-----| 
A|-9-9-9-9-9-9-9-9---7-7-7-7-7-7-7-7---5-5-5-5-5-5-5-5---4-4-4-4-8-8-8-8-----| 
E|-7-7-7-7-7-7-7-7---5-5-5-5-5-5-5-5---3-3-3-3-3-3-3-3---2-2-2-2-6-6-6-6-----| 

e|---------------------------------------------------------------------------| 
B|---------------------------------------------------------------------------| 
G|---------------------------------------------------------------------------| 
D|-9-9-9-9-9-9-9-9---7-7-7-7-7-7-7-7---5-5-5-5-5-5-5-5---4-4-4-4-8-8-8-8-----| 
A|-9-9-9-9-9-9-9-9---7-7-7-7-7-7-7-7---5-5-5-5-5-5-5-5---4-4-4-4-8-8-8-8-----| 
E|-7-7-7-7-7-7-7-7---5-5-5-5-5-5-5-5---3-3-3-3-3-3-3-3---2-2-2-2-6-6-6-6-----| 

e|---------------------------------------------------------------------------| 
B|---------------------------------------------------------------------------| 
G|---------------------------------------------------------------------------| 
D|-9-9-9-9-9-9-9-9---7-7-7-7-7-7-7-7---5-5-5-5-5-5-5-5---4-4-4-4-8-8-8-8-----| 
A|-9-9-9-9-9-9-9-9---7-7-7-7-7-7-7-7---5-5-5-5-5-5-5-5---4-4-4-4-8-8-8-8-----| 
E|-7-7-7-7-7-7-7-7---5-5-5-5-5-5-5-5---3-3-3-3-3-3-3-3---2-2-2-2-6-6-6-6-----| 
  

top 5 | set it off
top rock alternativo
Outras músicas do artista letras do(a) Set It Off
Top cifras »Top artistas »
Petaxxon Comunicação Online
Cifras.com.br - Melhor e mais completo site de cifras e tablaturas do Brasil
Mais de 1 milhão de acordes de músicas cadastradas desde 2003
As informações contidas no nosso site são colaborações de seus usuários e podem conter erros, sendo assim, não nos responsabilizamos sobre nenhuma destas.
close
menos
mais
close
Cor dos acordes:

Cor da letra:

 

save
close
close
 
redimensionar