Cifras e Tablaturas
Shaaman

Shaaman

In The Night

Cifras Cancelar Versão de Impressão

Shaaman - In The Night

Tom: A#5

  			Intro: 
 
|---------------------------------| 
|---------------------------------| 
|---------------------------------| 7X 
|---------------------------------| 
|-3p0-0-0-0-0-3p0-0-0-0-0-3p0-0-0-| 
|---------------------------------| 
 
|---------------------------------| 
|---------------------------------| 
|---------------------------------| 2X 
|---------------------------------| 
|-6p3-3-3-3-3-6p3-3-3-3-3-6p3-3-3-| 
|---------------------------------| 
 
|---------------------------------| 
|---------------------------------| 
|---------------------------------| 2X 
|---------------------------------| 
|-6p3-0-3p0-0-6p3-0-3p0-0-6p3-3p0-| 
|---------------------------------| 
 
|---------------------------------| 
|---------------------------------| 
|---------------------------------| 7X 
|---------------------------------| 
|-3p0-0-0-0-0-3p0-0-0-0-0-3p0-0-0-| 
|---------------------------------| 
 
 
Verse: (igual ao primeiro pedaço da intro) 
 
In the night, realm of dreams 
Wildness creeps, descending  D|-4/5-4---| 
                             A|-------5-| Lick somente nessa frase do verso 
 
All so quiet, all so still 
Prowling silence in the night 
 
In the heights, on the peaks 
Rainy clouds surrounding 
There are cities made of light 
Ripping though the black of night 
 
Antes do Chorus: |---| 
                 |---| 
                 |-3-| 
                 |-3-| 
                 |-1-| 
                 |---| 
 
Chorus: 
 
All becomes so real 
Making dreams come true 
To release your mind and free your soul 
 
|---------------------------------------------| 
|---------------------------------------------| 
|-3-----3p2-0-3p2-0-3-----3p2-0-3p2-0-3---3---| 
|-3-5-3-------------3-5-3-------------3-5-3-3-| 
|-1-5-3-------------1-5-3-------------1-5-1-3-| 
|---3-1---------------3-1---------------3---1-| 
 
 
Verse: 
 
 A#5       G#5 
Fly away from this land 
      F#5             F5                 
Made of old scraps of sorrow 
 A#5         G#5 
No way back, free to ride 
 F#5          F5 
Hesitation... sacrifice 
 A5         G5 
Mesmerize, hold on tight 
 F5                  E5 
For the heavens bend down 
 A5                G5 
There's a tunnel, long and winding 
 F5            E5 
Leading on towards the light 
 
Chorus: 
 
All becomes so real 
Making dreams come true 
To release your mind and free your... 
 
|---------------------------------------------| 
|---------------------------------------------| 
|-3-----3p2-0-3p2-0-3-----3p2-0-3p2-0-3---3---| 
|-3-5-3-------------3-5-3-------------3-5-3-3-| 
|-1-5-3-------------1-5-3-------------1-5-1-3-| 
|---3-1---------------3-1---------------3---1-| 
 
...Sooooul 
 
|-----------------| 
|-----------------| 
|-----------------| 
|-5-5-5-5-5-5-5-5-| 
|-5-5-5-5-5-5-5-5-| 
|-3-3-3-3-3-3-3-3-| 
 |______PM_______| 
 
 A#5                G#5        G5 
Free yourself from misery, let go 
 A#5 
Hear my voice and 
 G#5                 
I will guide your...|-----------------| 
                    |-----------------| 
                    |-5-5-5-5-5-5-5-5-| 
                    |-5-5-5-5-5-5-5-5-| 
                    |-5-5-5-5-5-5-5-5-| 
                    |-3-3-3-3-3-3-3-3-| 
                      |______PM______| 
 
....Roooaming! 
 
|-----------------------------------------------| 
|-----------------------------------------------| 
|-----------------------------------------------| 
|-----------AH-------------AH--3/5-3---------5~-| 
|---0-1~---0-1~---0-1~---0-1~--------6-8-6-5-5~-| 
|-3~-----3~-----3~-----3~--------------------3~-| 
 
Bridge: With effects, keyboard... (no Guitar) 
 
Solo: 
 
|-----------------------------------------------| 
|-15~-15-17-18---------------13-15-17b18-17b18~-| 
|-------------14~~------14-15-------------------| 
|------------------15-17------------------------| 
|-----------------------------------------------| 
|-----------------------------------------------| 
 
|-------20-17~----17-----------17---20b22~~-| 
|-15-17---------18----18-20--18--18---------| 
|-------------19----19-----19---------------| 
|-------------------------------------------| 
|-------------------------------------------| 
|-------------------------------------------| 
 
|-20-18-17-18--------------------------------------| 
|------------18-18b19----171514--------------------| 
|--------------------17~-------171514-151412-------| 
|-------------------------------------------151412-| 
|--------------------------------------------------| 
|--------------------------------------------------| 
 
|----------------------------------------------| 
|-15~~-15p13-----------------------------------| 
|-----------14b15rb14b15rb14b15rb14b15rb14~~~~-| 
|----------------------------------------------| 
|----------------------------------------------| 
|----------------------------------------------| 
 
 G5   A#5                G#5      G5   
Oh, free yourself from misery let go 
 A#5               G#5                G5 
Hear my voice and I will light your road 
 A#5               G#5                G5 
Leave behind the world you know, and float 
 A#5               G#5              G5    
Hear my voice and I will guide your...  
 
...Roaming! 
 
|-----------------------------------------------| 
|-----------------------------------------------| 
|-----------------------------------------------| 
|-----------AH-------------AH--3/5-3---------5~-| 
|---0-1~---0-1~---0-1~---0-1~--------6-8-6-5-5~-| 
|-3~-----3~-----3~-----3~--------------------3~-| 
 
End! 
 
 

    	
fixar
fixar inscrever-se

enviado porenviado por: eduardo_lyvio
cifra enviadaCorrigida por: sem correções
logo top cifrasComente
ico música do artistaMúsicas deste artista
ico curtiuCurtiu?
ico destaqueDestaque
Petaxxon Comunicação Online

Cifras.com.br - Melhor e mais completo site de cifras e tablaturas do Brasil Mais de 1 milhão de acordes de músicas cadastradas desde 2003
As informações contidas no nosso site são colaborações de seus usuários e podem conter erros, sendo assim, não nos responsabilizamos sobre nenhuma destas.

close
menos
mais
close
Cor dos acordes:

Cor da letra:

close
Alinhar acordes a direita Alinhar acordes a esquerda Alinhar acordes em baixo Alinhar acordes no topo
close
  Mostrar todos os acordes Esconder acordes muito fáceis Esconder acordes fáceis Esconder acordes intermediários
redimensionar
glossário