Cifras e Tablaturas
Shadows fall

Shadows fall

Divide And Conquer

Cifras Cancelar Versão de Impressão Print

Shadows fall - Divide And Conquer

Tom:

  • 0:00 / 0:00
  			

Intro 1 

Guitar 1 
D-----------------------------------------------------------------| 
A-----------------------------------------------------------------| 
F-----------------------------------------------------------------| 
C-----------------------------------------------------------------| 
G-----------------------------------------5-5-3-3-6-6-5-5-3-3-5-5-| 
C-0-0-0-0-0---0-0-0-0-0---0-0-0-0-5-5-3-3-------------------------| 
pm. . . . .   . . . . .   . . . . . . . . . . . . . . . . . . . . 

                                                                   

Guitar 1 
D-----------------------------------------------------------------| 
A-----------------------------------------------------------------| 
F-----------------------------------------------------------------| 
C-----------------------------------------------------------------| 
G-----------------------------------------5-5-3-3-6-6-5-5-8-8-6-6-| 
C-0-0-0-0-0---0-0-0-0-0---0-0-0-0-5-5-3-3-------------------------| 
pm. . . . .   . . . . .   . . . . . . . . . . . . . . . . . . . . 

                                                                   

Guitar 1 
D-----------------------------------------------------------------| 
A-----------------------------------------------------------------| 
F-----------------------------------------------------------------| 
C-----------------------------------------------------------------| 
G-----------------------------------------5-5-3-3-6-6-5-5-3-3-5-5-| 
C-0-0-0-0-0---0-0-0-0-0---0-0-0-0-5-5-3-3-------------------------| 
pm. . . . .   . . . . .   . . . . . . . . . . . . . . . . . . . . 

                                                                   

Guitar 1 
D-----------------------------------------------------------------| 
A-----------------------------------------------------------------| 
F-----------------------------------------------------------------| 
C---------------------------------0-------------------------------| 
G---------------------------------0-------------------------------| 
C-0-0-0-0-0---0-0-0-0-0---0-0-0-0-0-------------------------------| 
pm. . . . .   . . . . .   . . . . 

                                                                   
                                                                   


Intro 2 

Guitar 1 & 2 
D-----------------------------------------------------------------| 
A-----------------------------------------------------------------| 
F-----------------------------------------------------------------| 
C-0---0---3---0---5---0---3---5---6---0---5---0---3---0---1---3---| 
G-0---0---3---0---5---0---3---5---6---0---5---0---3---0---1---3---| 
C-0---0---3---0---5---0---3---5---6---0---5---0---3---0---1---3---| 
pm    .       .       .               .       .       . 

                                                                   

Guitar 1 & 2 
D-----------------------------------------------------------------| 
A-----------------------------------------------------------------| 
F-----------------------------------------------------------------| 
C-0---0---3---0---5---0---3---5-----------------------------------| 
G-0---0---3---0---5---0---3---5-----------5---3---6---5---3---5---| 
C-0---0---3---0---5---0---3---5---0---3---------------------------| 
pm    .       .       .           .   .   .   .   .   .   .   . 

                                                                   

Guitar 1 & 2 
D-----------------------------------------------------------------| 
A-----------------------------------------------------------------| 
F-----------------------------------------------------------------| 
C-0---0---3---0---5---0---3---5---6---0---5---0---3---0---1---3---| 
G-0---0---3---0---5---0---3---5---6---0---5---0---3---0---1---3---| 
C-0---0---3---0---5---0---3---5---6---0---5---0---3---0---1---3---| 
pm    .       .       .               .       .       . 

                                                                   

Guitar 1 
D-----------------------------------------------------------------| 
A-----------------------------------------------------------------| 
F-----------------------------------------------------------------| 
C-0---0---3---0---5---0---3---5-----------------------------------| 
G-0---0---3---0---5---0---3---5-----------5---3---6---5---3---5---| 
C-0---0---3---0---5---0---3---5---0---3---------------------------| 
pm    .       .       .           .   .   .   .   .   .   .   . 

Guitar 2 
D-----------------------------------------------------------------| 
A-----------------------------------------------------------------| 
F-----------------------------------------------------------------| 
C-0---0---3---0---5---0---3---5-----------3---2---5---3---2---3---| 
G-0---0---3---0---5---0---3---5---0---5---------------------------| 
C-0---0---3---0---5---0---3---5-----------------------------------| 
pm    .       .       .           .   .   .   .   .   .   .   . 

                                                                   
                                                                   


Verse 1 

Guitar 1 & 2 
D-----------------------------------------------------------------| 
A-----------------------------------------------------------------| 
F-3---------------------------7-----------------------------------| 
C-3---3---0---0---0---0---0---7---0---0---1---3---1---0-----------| 
G-1---3---0---0---0---0---0---5---0---0---1---3---1---0-----------| 
C-----3---0---0---0---0---0-------0---0---1---3---1---0-----------| 
pm            .   .   .   .       .   . 

                                                                   

Guitar 1 & 2 
D-----------------------------------------------------------------| 
A-----------------------------------------------------------------| 
F-3---------------------------------------------------------------| 
C-3---3---0---0---0---0---0---3---0---5---0---6---0---5---3---0---| 
G-1---3---0---0---0---0---0---3---0---5---0---6---0---5---3---0---| 
C-----3---0---0---0---0---0---3---0---5---0---6---0---5---3---0---| 
pm            .   .   .   .       .       .       . 

                                                                   

Guitar 1 & 2 
D-----------------------------------------------------------------| 
A-----------------------------------------------------------------| 
F-3---------------------------7-----------------------------------| 
C-3---3---0---0---0---0---0---7---0---0---1---3---1---0-----------| 
G-1---3---0---0---0---0---0---5---0---0---1---3---1---0-----------| 
C-----3---0---0---0---0---0-------0---0---1---3---1---0-----------| 
pm            .   .   .   .       .   . 

                                                                   

Guitar 1 & 2 
D-----------------------------------------------------------------| 
A-----------------------------------------------------------------| 
F-3---------------------------------------------------------------| 
C-3---3---0---0---0---0---0---3---0---5---0---6---0---5---3---0---| 
G-1---3---0---0---0---0---0---3---0---5---0---6---0---5---3---0---| 
C-----3---0---0---0---0---0---3---0---5---0---6---0---5---3---0---| 
pm            .   .   .   .       .       .       . 

                                                                   

Guitar 1 & 2 
D-----------------------------------------------------------------| 
A-----------------------------------------------------------------| 
F-3---------------------------7-----------------------------------| 
C-3---3---0---0---0---0---0---7---0---0---1---3---1---0---0---0---| 
G-1---3---0---0---0---0---0---5---0---0---1---3---1---0---0---0---| 
C-----3---0---0---0---0---0-------0---0---1---3---1---0---0---0---| 
pm            .   .   .   .       .   .                   .   . 

                                                                   

Guitar 1 & 2 
D-----------------------------------------------------------------| 
A-----------------------------------------------------------------| 
F-3---------------------------------------------------------------| 
C-3---3---0---0---0---0---0---3---0---5---0---6---0---5---3---0---| 
G-1---3---0---0---0---0---0---3---0---5---0---6---0---5---3---0---| 
C-----3---0---0---0---0---0---3---0---5---0---6---0---5---3---0---| 
pm            .   .   .   .       .       .       . 

                                                                   

Guitar 1 & 2 
D-----------------------------------------------------------------| 
A-----------------------------------------------------------------| 
F-3---------------------------7-----------------------------------| 
C-3---3---0---0---0---0---0---7---0---0---1---3---1---0---0---0---| 
G-1---3---0---0---0---0---0---5---0---0---1---3---1---0---0---0---| 
C-----3---0---0---0---0---0-------0---0---1---3---1---0---0---0---| 
pm            .   .   .   .       .   .                   .   . 

                                                                   

Guitar 1 & 2 
D-----------------------------------------------------------------| 
A-----------------------------------------------------------------| 
F-3---------------------------------------------------------------| 
C-3---3---0---0---0---0---0---3---0---5---0---6---0---5---3---0---| 
G-1---3---0---0---0---0---0---3---0---5---0---6---0---5---3---0---| 
C-----3---0---0---0---0---0---3---0---5---0---6---0---5---3---0---| 
pm            .   .   .   .       .       .       . 

                                                                   
                                                                   


Chorus 1 

Guitar 1 
D-----------------------------------------------------------------| 
A-----------------------------------------------------------------| 
F-----------------------------3~~~~~~~~~~~~~~~~~~~~~~~~~~~~~~~~~~-| 
C-0---0---0---0---0---0---0---3~~~~~~~~~~~~~~~~~~~~~~~~~~~~~~~~~~-| 
G-0---0---0---0---0---0---0---1~~~~~~~~~~~~~~~~~~~~~~~~~~~~~~~~~~-| 
C-0---0---0---0---0---0---0---------------------------------------| 
pm        .       .       . 

Guitar 2 
D-------------------------------------------------8~~~~~~---------| 
A-6---6-------5-------6-------6~~~~~~~~~~-6~~~~~~---------6~~~~~~-| 
F---------7-------7-------7---------------------------------------| 
C-----------------------------------------------------------------| 
G-----------------------------------------------------------------| 
C-----------------------------------------------------------------| 
pm        .       .       . 

                                                                   

Guitar 1 
D-----------------------------------------------------------------| 
A-----------------------------------------------------------------| 
F-----------------------------5~~~~~~~~~~~~~~~~~~~~~~~~~~~~~~~~~~-| 
C-0---0---0---0---0---0---0---5~~~~~~~~~~~~~~~~~~~~~~~~~~~~~~~~~~-| 
G-0---0---0---0---0---0---0---3~~~~~~~~~~~~~~~~~~~~~~~~~~~~~~~~~~-| 
C-0---0---0---0---0---0---0---------------------------------------| 
pm        .       .       . 

Guitar 2 
D-------------------------------------------------8~~~~~~---------| 
A-6---6-------5-------6-------6~~~~~~~~~~-6~~~~~~---------6~~~~~~-| 
F---------7-------7-------7---------------------------------------| 
C-----------------------------------------------------------------| 
G-----------------------------------------------------------------| 
C-----------------------------------------------------------------| 
pm        .       .       . 

                                                                   

Guitar 1 
D-----------------------------------------------------------------| 
A-----------------------------------------------------------------| 
F-----------------------------3~~~~~~~~~~~~~~~~~~~~~~~~~~~~~~~~~~-| 
C-0---0---0---0---0---0---0---3~~~~~~~~~~~~~~~~~~~~~~~~~~~~~~~~~~-| 
G-0---0---0---0---0---0---0---1~~~~~~~~~~~~~~~~~~~~~~~~~~~~~~~~~~-| 
C-0---0---0---0---0---0---0---------------------------------------| 
pm        .       .       . 

Guitar 2 
D-------------------------------------------------8~~~~~~---------| 
A-6---6-------5-------6-------6~~~~~~~~~~-6~~~~~~---------6~~~~~~-| 
F---------7-------7-------7---------------------------------------| 
C-----------------------------------------------------------------| 
G-----------------------------------------------------------------| 
C-----------------------------------------------------------------| 
pm        .       .       . 

                                                                   

Guitar 1 & 2 
D-----------------------------------------------------------------| 
A---------6-------6---6---------------8-------8~~~~~~-------------| 
F---------5-------5---5---------------7-------7~~~~~~-------------| 
C-3---3-------3-----------3---5---5-------5-----------5---5---5---| 
G-3---3-------3-----------3---5---5-------5-----------5---5---5---| 
C-3---3-------3-----------3---5---5-------5-----------5---5---5---| 
pm.   .       .           .       .       .               .   . 

                                                                   
                                                                   


Verse 2 

Guitar 1 & 2 
D-----------------------------------------------------------------| 
A-----------------------------------------------------------------| 
F-3---------------------------7-----------------------------------| 
C-3---3---0---0---0---0---0---7---0---0---1---3---1---0-----------| 
G-1---3---0---0---0---0---0---5---0---0---1---3---1---0-----------| 
C-----3---0---0---0---0---0-------0---0---1---3---1---0-----------| 
pm            .   .   .   .       .   . 

                                                                   

Guitar 1 & 2 
D-----------------------------------------------------------------| 
A-----------------------------------------------------------------| 
F-3---------------------------------------------------------------| 
C-3---3---0---0---0---0---0---3---0---5---0---6---0---5---3---0---| 
G-1---3---0---0---0---0---0---3---0---5---0---6---0---5---3---0---| 
C-----3---0---0---0---0---0---3---0---5---0---6---0---5---3---0---| 
pm            .   .   .   .       .       .       . 

                                                                   

Guitar 1 & 2 
D-----------------------------------------------------------------| 
A-----------------------------------------------------------------| 
F-3---------------------------7-----------------------------------| 
C-3---3---0---0---0---0---0---7---0---0---1---3---1---0-----------| 
G-1---3---0---0---0---0---0---5---0---0---1---3---1---0-----------| 
C-----3---0---0---0---0---0-------0---0---1---3---1---0-----------| 
pm            .   .   .   .       .   . 

                                                                   

Guitar 1 & 2 
D-----------------------------------------------------------------| 
A-----------------------------------------------------------------| 
F-3---------------------------------------------------------------| 
C-3---3---0---0---0---0---0---3---0---5---0-----------0---6\~~~~~-| 
G-1---3---0---0---0---0---0---3---0---5---0---5*~~~~~-0---6\~~~~~-| 
C-----3---0---0---0---0---0---3---0---5---0-----------0---6\~~~~~-| 
pm            .   .   .   .       .       .           . 

                                                                   

Guitar 1 & 2 
D-----------------------------------------------------------------| 
A-----------------------------------------------------------------| 
F-3---------------------------7-----------------------------------| 
C-3---3---0---0---0---0---0---7---0---0---1---3---1---0---0---0---| 
G-1---3---0---0---0---0---0---5---0---0---1---3---1---0---0---0---| 
C-----3---0---0---0---0---0-------0---0---1---3---1---0---0---0---| 
pm            .   .   .   .       .   .                   .   . 

                                                                   

Guitar 1 & 2 
D-----------------------------------------------------------------| 
A-----------------------------------------------------------------| 
F-3---------------------------------------------------------------| 
C-3---3---0---0---0---0---0---3---0---5---0---6---0---5---3---0---| 
G-1---3---0---0---0---0---0---3---0---5---0---6---0---5---3---0---| 
C-----3---0---0---0---0---0---3---0---5---0---6---0---5---3---0---| 
pm            .   .   .   .       .       .       . 

                                                                   

Guitar 1 & 2 
D-----------------------------------------------------------------| 
A-----------------------------------------------------------------| 
F-3---------------------------7-----------------------------------| 
C-3---3---0---0---0---0---0---7---0---0---1---3---1---0---0---0---| 
G-1---3---0---0---0---0---0---5---0---0---1---3---1---0---0---0---| 
C-----3---0---0---0---0---0-------0---0---1---3---1---0---0---0---| 
pm            .   .   .   .       .   .                   .   . 

                                                                   

Guitar 1 & 2 
D-----------------------------------------------------------------| 
A-----------------------------------------------------------------| 
F-3---------------------------------------------------------------| 
C-3---3---0---0---0---0---0---3---0---5---0---6---0---5---3---0---| 
G-1---3---0---0---0---0---0---3---0---5---0---6---0---5---3---0---| 
C-----3---0---0---0---0---0---3---0---5---0---6---0---5---3---0---| 
pm            .   .   .   .       .       .       . 

                                                                   
                                                                   


Chorus 2 

(x2) 

Guitar 1 
D-----------------------------------------------------------------| 
A-----------------------------------------------------------------| 
F-----------------------------3~~~~~~~~~~~~~~~~~~~~~~~~~~~~~~~~~~-| 
C-0---0---0---0---0---0---0---3~~~~~~~~~~~~~~~~~~~~~~~~~~~~~~~~~~-| 
G-0---0---0---0---0---0---0---1~~~~~~~~~~~~~~~~~~~~~~~~~~~~~~~~~~-| 
C-0---0---0---0---0---0---0---------------------------------------| 
pm        .       .       . 

Guitar 2 
D-------------------------------------------------8~~~~~~---------| 
A-6---6-------5-------6-------6~~~~~~~~~~-6~~~~~~---------6~~~~~~-| 
F---------7-------7-------7---------------------------------------| 
C-----------------------------------------------------------------| 
G-----------------------------------------------------------------| 
C-----------------------------------------------------------------| 
pm        .       .       . 

                                                                   

Guitar 1 
D-----------------------------------------------------------------| 
A-----------------------------------------------------------------| 
F-----------------------------5~~~~~~~~~~~~~~~~~~~~~~~~~~~~~~~~~~-| 
C-0---0---0---0---0---0---0---5~~~~~~~~~~~~~~~~~~~~~~~~~~~~~~~~~~-| 
G-0---0---0---0---0---0---0---3~~~~~~~~~~~~~~~~~~~~~~~~~~~~~~~~~~-| 
C-0---0---0---0---0---0---0---------------------------------------| 
pm        .       .       . 

Guitar 2 
D-------------------------------------------------8~~~~~~---------| 
A-6---6-------5-------6-------6~~~~~~~~~~-6~~~~~~---------6~~~~~~-| 
F---------7-------7-------7---------------------------------------| 
C-----------------------------------------------------------------| 
G-----------------------------------------------------------------| 
C-----------------------------------------------------------------| 
pm        .       .       . 

                                                                   

Guitar 1 
D-----------------------------------------------------------------| 
A-----------------------------------------------------------------| 
F-----------------------------3~~~~~~~~~~~~~~~~~~~~~~~~~~~~~~~~~~-| 
C-0---0---0---0---0---0---0---3~~~~~~~~~~~~~~~~~~~~~~~~~~~~~~~~~~-| 
G-0---0---0---0---0---0---0---1~~~~~~~~~~~~~~~~~~~~~~~~~~~~~~~~~~-| 
C-0---0---0---0---0---0---0---------------------------------------| 
pm        .       .       . 

Guitar 2 
D-------------------------------------------------8~~~~~~---------| 
A-6---6-------5-------6-------6~~~~~~~~~~-6~~~~~~---------6~~~~~~-| 
F---------7-------7-------7---------------------------------------| 
C-----------------------------------------------------------------| 
G-----------------------------------------------------------------| 
C-----------------------------------------------------------------| 
pm        .       .       . 

                                                                   

Guitar 1 & 2 
D-----------------------------------------------------------------| 
A---------6-------6---6---------------8-------8~~~~~~-------------| 
F---------5-------5---5---------------7-------7~~~~~~-------------| 
C-3---3-------3-----------3---5---5-------5-----------5---5---5---| 
G-3---3-------3-----------3---5---5-------5-----------5---5---5---| 
C-3---3-------3-----------3---5---5-------5-----------5---5---5---| 
pm.   .       .           .       .       .               .   . 

                                                                   
                                                                   


Bridge 1 

Guitar 1 & 2 
D-----------------------------------------------------------------| 
A-----------------------------------------------------------------| 
F-----------------------------------------------------------------| 
C-0~~~~~~~~~~~~~~~~~~~~~~~~~~~~~~-ps\~~~~~~~~~~~~~~~~~~~~~~~~~~~~-| 
G-0~~~~~~~~~~~~~~~~~~~~~~~~~~~~~~-ps\~~~~~~~~~~~~~~~~~~~~~~~~~~~~-| 
C-0~~~~~~~~~~~~~~~~~~~~~~~~~~~~~~-ps\~~~~~~~~~~~~~~~~~~~~~~~~~~~~-| 

                                                                   
                                                                   


Breakdown 

Guitar 1 & 2 (x7) 
D-----------------------------------------------------------------| 
A-----------------------------------------------------------------| 
F-----------------------------------------------------------------| 
C-----------------------------------------------------------------| 
G-----------------------------------------------------------------| 
C-0-0-0-0-0---0-0-0-0-0---0-0-0-0-0-0-0-0-0---0-0-0-0-0---0-0-0-0-| 
pm. . . . .   . . . . .   . . . . . . . . .   . . . . .   . . . . 

                                                                   

Guitar 1 & 2 
D-----------------------------------------------------------------| 
A-----------------------------------------------------------------| 
F-----------------------------------------------------------------| 
C---------------------0---0---0---0---0---------------------------| 
G---------------------0---0---0---0---0---------------------------| 
C-0-0-0-0-0---0-0-0-0-0---0---0---0---0---------------------------| 
pm. . . . .   . . . . .   .   .   . 

                                                                   
                                                                   


Guitar Solo 

Guitar 1 & 3 
D-----------------------------------------------------------------| 
A-----------------------------------------------------------------| 
F-----------------------------------------------------------------| 
C-0---0---3---0---5---0---3---5---6---0---5---0---3---0---1---3---| 
G-0---0---3---0---5---0---3---5---6---0---5---0---3---0---1---3---| 
C-0---0---3---0---5---0---3---5---6---0---5---0---3---0---1---3---| 
pm    .       .       .               .       .       . 

Guitar 2 
 D/14b~~~~~~~~~~~~~~~~~~~~~~~~~~~~-16b~~~~~~~~~~~~~~~~~~~~~~~~~~~~-  
A-----------------------------------------------------------------| 
F-----------------------------------------------------------------| 
C-----------------------------------------------------------------| 
G-----------------------------------------------------------------| 
C-----------------------------------------------------------------| 

                                                                   

Guitar 1 & 3 
D-----------------------------------------------------------------| 
A-----------------------------------------------------------------| 
F-----------------------------------------------------------------| 
C-0---0---3---0---5---0---3---5-----------------------------------| 
G-0---0---3---0---5---0---3---5-----------5---3---6---5---3---5---| 
C-0---0---3---0---5---0---3---5---0---3---------------------------| 
pm    .       .       .           .   .   .   .   .   .   .   . 

Guitar 2  |  Full bend   |               Half bend               | 
D---------18b~~~~~~~~~~~~-18b~~~~~~~~~~~~~~~~~~~~~~~~~~~~~~~~~~~~-| 
A-----------------------------------------------------------------| 
F-----------------------------------------------------------------| 
C-----------------------------------------------------------------| 
G-----------------------------------------------------------------| 
C-----------------------------------------------------------------| 

                                                                   

Guitar 1 & 3 
D-----------------------------------------------------------------| 
A-----------------------------------------------------------------| 
F-----------------------------------------------------------------| 
C-0---0---3---0---5---0---3---5---6---0---5---0---3---0---1---3---| 
G-0---0---3---0---5---0---3---5---6---0---5---0---3---0---1---3---| 
C-0---0---3---0---5---0---3---5---6---0---5---0---3---0---1---3---| 
pm    .       .       .               .       .       . 

Guitar 2 
D-18-15-13----20-15-13----18-15-13----------------------------------------| 
A----------15----------15----------15-13----------15-20-18-15-18-15-13----| 
F----------------------------------------15-17-19----------------------15-| 
C-------------------------------------------------------------------------| 
G-------------------------------------------------------------------------| 
C-------------------------------------------------------------------------| 

                                                                   

Guitar 1 
D-----------------------------------------------------------------| 
A-----------------------------------------------------------------| 
F-----------------------------------------------------------------| 
C-0---0---3---0---5---0---3---5-----------------------------------| 
G-0---0---3---0---5---0---3---5-----------5---3---6---5---3---5---| 
C-0---0---3---0---5---0---3---5---0---3---------------------------| 
pm    .       .       .           .   .   .   .   .   .   .   . 

Guitar 2 
D---------------------16~~b~~~~~~~~~~~~~~-15~~~~~~~~~~~~~~~~~~~~~-| 
A---------------------17~~b~~~~~~~~~~~~~~-16~~~~~~~~~~~~~~~~~~~~~-| 
F-14~~~~~~~~~~~~~~~~~---------------------------------------------| 
C-----------------------------------------------------------------| 
G-----------------------------------------------------------------| 
C-----------------------------------------------------------------| 

Guitar 3 
D-----------------------------------------------------------------| 
A-----------------------------------------------------------------| 
F-----------------------------------------------------------------| 
C-0---0---3---0---5---0---3---5-----------3---2---5---3---2---3---| 
G-0---0---3---0---5---0---3---5---0---5---------------------------| 
C-0---0---3---0---5---0---3---5-----------------------------------| 
pm    .       .       .           .   .   .   .   .   .   .   . 

                                                                   

Guitar 1 & 3 
D-----------------------------------------------------------------| 
A-----------------------------------------------------------------| 
F-----------------------------------------------------------------| 
C-0---0---3---0---5---0---3---5---6---0---5---0---3---0---1---3---| 
G-0---0---3---0---5---0---3---5---6---0---5---0---3---0---1---3---| 
C-0---0---3---0---5---0---3---5---6---0---5---0---3---0---1---3---| 
pm    .       .       .               .       .       . 

Guitar 2 
D-----------------------------------------------------------------| 
A-17--17--17--18~~~~~-18--18--18--20--20--20--18~~~~~-18--18--18--| 
F-19--19--19--19~~~~~-19--19--19--19--19--19--19~~~~~-19--19--19--| 
C-----------------------------------------------------------------| 
G-----------------------------------------------------------------| 
C-----------------------------------------------------------------| 

                                                                   

Guitar 1 & 3 
D-----------------------------------------------------------------| 
A-----------------------------------------------------------------| 
F-----------------------------------------------------------------| 
C-0---0---3---0---5---0---3---5-----------------------------------| 
G-0---0---3---0---5---0---3---5-----------5---3---6---5---3---5---| 
C-0---0---3---0---5---0---3---5---0---3---------------------------| 
pm    .       .       .           .   .   .   .   .   .   .   . 

Guitar 2 
D-----------------------------------------------------------------| 
A-17--17--17--18~~~~~-18--18--15--15~~~~~~~~~~~~~~~~~~~~~~\~~~~~~-| 
F-17--17--17--17~~~~~-17--17--15--15~~~~~~~~~~~~~~~~~~~~~~\~~~~~~-| 
C-----------------------------------------------------------------| 
G-----------------------------------------------------------------| 
C-----------------------------------------------------------------| 

                                                                   

Guitar 1 & 3 
D-----------------------------------------------------------------| 
A-----------------------------------------------------------------| 
F-----------------------------------------------------------------| 
C-0---0---3---0---5---0---3---5---6---0---5---0---3---0---1---3---| 
G-0---0---3---0---5---0---3---5---6---0---5---0---3---0---1---3---| 
C-0---0---3---0---5---0---3---5---6---0---5---0---3---0---1---3---| 
pm    .       .       .               .       .       . 

Guitar 2 
Dt17p15t17p15p12h15t17p15t17p15p12h15t17p15p12h15- 
A-------------------------------------------------| 
F-------------------------------------------------| 
C-------------------------------------------------| 
G-------------------------------------------------| 
C-------------------------------------------------| 

Guitar 2 continued 
Dt18p15t18p15p12h15t18p15t18p15p12h15t18p15p12h15- 
A-------------------------------------------------| 
F-------------------------------------------------| 
C-------------------------------------------------| 
G-------------------------------------------------| 
C-------------------------------------------------| 

                                                                   

Guitar 1 
D-----------------------------------------------------------------| 
A-----------------------------------------------------------------| 
F-----------------------------------------------------------------| 
C-0---0---3---0---5---0---3---5-----------------------------------| 
G-0---0---3---0---5---0---3---5-----------5---3---6---5---3---5---| 
C-0---0---3---0---5---0---3---5---0---3---------------------------| 
pm    .       .       .           .   .   .   .   .   .   .   . 

Guitar 2 
Dt20p15t20p15p12h15t20p15t20p15p12h15t20p15p12h15- 
A-------------------------------------------------| 
F-------------------------------------------------| 
C-------------------------------------------------| 
G-------------------------------------------------| 
C-------------------------------------------------| 

Guitar 2 continued 
Dt20p17p13h17t20p17p13h17t20p17p13h17t20p17p13h17- 
A-------------------------------------------------| 
F-------------------------------------------------| 
C-------------------------------------------------| 
G-------------------------------------------------| 
C-------------------------------------------------| 
Guitar 3 
D-----------------------------------------------------------------| 
A-----------------------------------------------------------------| 
F-----------------------------------------------------------------| 
C-0---0---3---0---5---0---3---5-----------3---2---5---3---2---3---| 
G-0---0---3---0---5---0---3---5---0---5---------------------------| 
C-0---0---3---0---5---0---3---5-----------------------------------| 
pm    .       .       .           .   .   .   .   .   .   .   . 

                                                                   
                                                                   


Bridge 2 

Guitar 1 
D-----------------------------------------------------------------| 
A-----------------------------------------------------------------| 
F-----------------------------------------------------------------| 
C-----------------------------------------------------------------| 
G-----------------------------------------------------------------| 
C-0-0-0-0-0---0-0-0-0-0---0-0-0-0---------------------------------| 
pm. . . . .   . . . . .   . . . . 

Guitar 2 
D-20b~~~~~~~~~~~~~~~~~~~~~~~~~~~~-15~~~~~~~~~~~~~~~~~~~~~~~~~~~~~-| 
A---------------------------------16~~~~~~~~~~~~~~~~~~~~~~~~~~~~~-| 
F-----------------------------------------------------------------| 
C-----------------------------------------------------------------| 
G-----------------------------------------------------------------| 
C-----------------------------------------------------------------| 

Guitar 3 
D-----------------------------------------------------------------| 
A-----------------------------------------------------------------| 
F-----------------------------------------------------------------| 
C-----------------------------------------------------------------| 
G-----------------------------------------------------------------| 
C---------------------------------0-0-0-0-0---0-0-0-0-0---0-0-0-0-| 
pm                                . . . . .   . . . . .   . . . . 


                                                                   
                                                                   


Chorus 2 

(x2) 

Guitar 1 
D-----------------------------------------------------------------| 
A-----------------------------------------------------------------| 
F-----------------------------3~~~~~~~~~~~~~~~~~~~~~~~~~~~~~~~~~~-| 
C-0---0---0---0---0---0---0---3~~~~~~~~~~~~~~~~~~~~~~~~~~~~~~~~~~-| 
G-0---0---0---0---0---0---0---1~~~~~~~~~~~~~~~~~~~~~~~~~~~~~~~~~~-| 
C-0---0---0---0---0---0---0---------------------------------------| 
pm        .       .       . 

Guitar 2 
D-------------------------------------------------8~~~~~~---------| 
A-6---6-------5-------6-------6~~~~~~~~~~-6~~~~~~---------6~~~~~~-| 
F---------7-------7-------7---------------------------------------| 
C-----------------------------------------------------------------| 
G-----------------------------------------------------------------| 
C-----------------------------------------------------------------| 
pm        .       .       . 

                                                                   

Guitar 1 
D-----------------------------------------------------------------| 
A-----------------------------------------------------------------| 
F-----------------------------5~~~~~~~~~~~~~~~~~~~~~~~~~~~~~~~~~~-| 
C-0---0---0---0---0---0---0---5~~~~~~~~~~~~~~~~~~~~~~~~~~~~~~~~~~-| 
G-0---0---0---0---0---0---0---3~~~~~~~~~~~~~~~~~~~~~~~~~~~~~~~~~~-| 
C-0---0---0---0---0---0---0---------------------------------------| 
pm        .       .       . 

Guitar 2 
D-------------------------------------------------8~~~~~~---------| 
A-6---6-------5-------6-------6~~~~~~~~~~-6~~~~~~---------6~~~~~~-| 
F---------7-------7-------7---------------------------------------| 
C-----------------------------------------------------------------| 
G-----------------------------------------------------------------| 
C-----------------------------------------------------------------| 
pm        .       .       . 

                                                                   

Guitar 1 
D-----------------------------------------------------------------| 
A-----------------------------------------------------------------| 
F-----------------------------3~~~~~~~~~~~~~~~~~~~~~~~~~~~~~~~~~~-| 
C-0---0---0---0---0---0---0---3~~~~~~~~~~~~~~~~~~~~~~~~~~~~~~~~~~-| 
G-0---0---0---0---0---0---0---1~~~~~~~~~~~~~~~~~~~~~~~~~~~~~~~~~~-| 
C-0---0---0---0---0---0---0---------------------------------------| 
pm        .       .       . 

Guitar 2 
D-------------------------------------------------8~~~~~~---------| 
A-6---6-------5-------6-------6~~~~~~~~~~-6~~~~~~---------6~~~~~~-| 
F---------7-------7-------7---------------------------------------| 
C-----------------------------------------------------------------| 
G-----------------------------------------------------------------| 
C-----------------------------------------------------------------| 
pm        .       .       . 

                                                                   

Guitar 1 & 2 
D-----------------------------------------------------------------| 
A---------6-------6---6---------------8-------8~~~~~~-------------| 
F---------5-------5---5---------------7-------7~~~~~~-------------| 
C-3---3-------3-----------3---5---5-------5-----------5---5---5---| 
G-3---3-------3-----------3---5---5-------5-----------5---5---5---| 
C-3---3-------3-----------3---5---5-------5-----------5---5---5---| 
pm.   .       .           .       .       .               .   . 

                                                                   
                                                                   


Bridge 3 

Guitar 1 
D-----------------------------------------------------------------| 
A-----------------------------------------------------------------| 
F---------------------------------3---3---3---3---3---3---3---3---| 
C-0---0---0---0---0---0---0---0---3---3---3---3---3---3---3---3---| 
G-0---0---0---0---0---0---0---0---1---1---1---1---1---1---1---1---| 
C-0---0---0---0---0---0---0---0-----------------------------------| 

Guitar 2 
D-----------------------------------------------------------------| 
A-6---6---6---6---6---6---6---6---11--11--11--11--11--11--11--11--| 
F-x---x---x---x---x---x---x---x---x---x---x---x---x---x---x---x---| 
C-3---3---3---3---3---3---3---3---8---8---8---8---8---8---8---8---| 
G-----------------------------------------------------------------| 
C-----------------------------------------------------------------| 

                                                                   

Guitar 1 
D-----------------------------------------------------------------| 
A-----------------------------------------------------------------| 
F-5---5---5---5---5---5-------------------------------------------| 
C-5---5---5---5---5---5---3---3~~~~~~-3---3---5~~~~~~-5---5---5---| 
G-3---3---3---3---3---3---3---3~~~~~~-3---3---5~~~~~~-5---5---5---| 
C-------------------------3---3~~~~~~-3---3---5~~~~~~-5---5---5---| 
pm                        .               . 

Guitar 2 
D-----------------------------------------------------------------| 
A-10--10--10--10--10--10--x---6~~~~~~-6---x---8~~~~~~-8---8---8---| 
F-x---x---x---x---x---x---x---x-------x---x---x-------x---x---x---| 
C-7---7---7---7---7---7---x---3~~~~~~-3---x---5~~~~~~-5---5---5---| 
G-----------------------------------------------------------------| 
C-----------------------------------------------------------------| 

                                                                   

Guitar 1 
D-----------------------------------------------------------------| 
A-----------------------------------------------------------------| 
F---------------------------------3---3---3---3---3---3---3---3---| 
C-0---0---0---0---0---0---0---0---3---3---3---3---3---3---3---3---| 
G-0---0---0---0---0---0---0---0---1---1---1---1---1---1---1---1---| 
C-0---0---0---0---0---0---0---0-----------------------------------| 

Guitar 2 
D-----------------------------------------------------------------| 
A-6---6---6---6---6---6---6---6---11--11--11--11--11--11--11--11--| 
F-x---x---x---x---x---x---x---x---x---x---x---x---x---x---x---x---| 
C-3---3---3---3---3---3---3---3---8---8---8---8---8---8---8---8---| 
G-----------------------------------------------------------------| 
C-----------------------------------------------------------------| 

                                                                   

Guitar 1 
D-----------------------------------------------------------------| 
A-----------------------------------------------------------------| 
F-5---5---5---5---5---5-------------------------------------------| 
C-5---5---5---5---5---5---3---3~~~~~~-3---3---5~~~~~~-5---5---5---| 
G-3---3---3---3---3---3---3---3~~~~~~-3---3---5~~~~~~-5---5---5---| 
C-------------------------3---3~~~~~~-3---3---5~~~~~~-5---5---5---| 
pm                        .               . 

Guitar 2 
D-----------------------------------------------------------------| 
A-10--10--10--10--10--10--x---6~~~~~~-6---x---8~~~~~~-8---8---8---| 
F-x---x---x---x---x---x---x---x-------x---x---x-------x---x---x---| 
C-7---7---7---7---7---7---x---3~~~~~~-3---x---5~~~~~~-5---5---5---| 
G-----------------------------------------------------------------| 
C-----------------------------------------------------------------| 

                                                                   
                                                                   


Outro 

Guitar 1 & 2 
D-----------------------------------------------------------------| 
A-----------------------------------------------------------------| 
F-----------------------------------------------------------------| 
C-0~~~~~~~~~~~~~~~~~~~~~~~~~~~~~~~~~~~~~~~~~~~~~~~~~~~~~~~~~~~~~~-| 
G-0~~~~~~~~~~~~~~~~~~~~~~~~~~~~~~~~~~~~~~~~~~~~~~~~~~~~~~~~~~~~~~-| 
C-0~~~~~~~~~~~~~~~~~~~~~~~~~~~~~~~~~~~~~~~~~~~~~~~~~~~~~~~~~~~~~~-| 

                                                                   

Guitar 1 & 2 
D-----------------------------------------------------------------| 
A-----------------------------------------------------------------| 
F-----------------------------------------------------------------| 
C---------------------------------0-------------------------------| 
G---------------------------------0-------------------------------| 
C-0-0-0-0-0---0-0-0-0-0---0-0-0-0-0-------------------------------| 
pm. . . . .   . . . . .   . . . . 
 
    	

enviado porenviado por: brunblazkowski
cifra enviadaCorrigida por: sem correções
logo top cifrasComente
ico música do artistaMúsicas deste artista
ico curtiuCurtiu?
ico destaqueDestaque
Petaxxon Comunicação Online

Cifras.com.br - Melhor e mais completo site de cifras e tablaturas do Brasil Mais de 1 milhão de acordes de músicas cadastradas desde 2003
As informações contidas no nosso site são colaborações de seus usuários e podem conter erros, sendo assim, não nos responsabilizamos sobre nenhuma destas.

close
menos
mais
close
Cor dos acordes:

Cor da letra:

close
Alinhar acordes a direita Alinhar acordes a esquerda Alinhar acordes em baixo Alinhar acordes no topo
close
  Mostrar todos os acordes Esconder acordes muito fáceis Esconder acordes fáceis Esconder acordes intermediários
redimensionar
glossário