Cifras e Tablaturas
Shakey Graves

Shakey Graves

Rotten Ol Me

Cifras Cancelar Versão de Impressão
cifras

Shakey Graves - Rotten Ol Me

fixar na tela  
Exibindo: vídeo-aula ver clipes redimensionar
  
Tuning: Open C#  


Intro: 
e|---------------------------16-------------------16---15---14----12----------------------12------| 
B|---11/12-----11/12---------12-------------------12---11---10----9-----------8-----9-------------| 
G|------------------------------------------------------------------------------------------------| 
D|----------0----------0----------0----------0---------0----------0-----------0-----------0-------| 
A|------------------------------------------------------------------------------------------------| 
E|---0----------0------------0----------0---------0---------0-----------0-----------0-------------| 

e|------12-------------12------------------12------------------12--------------| 
B|------------12---------------12------------------12-------------------12-----| 
G|-----------------------------------------------------------------------------| 
D|------9--------9-----9-----------9-------9-----------9-------9------------9--| 
A|-----------------------------------------------------------------------------| 
E|-9--------9-------9-------9----------9--------9----------9--------9----------| 

repeat a few times 
Verse:  
e|----4------4-------4-------4-------4-------4-------4-------3--------------------| 
B|----4------4-------4-------4-------4-------4-------4-------3--------------------| 
G|----3------3-------3-------3-------3-------3-------3-------2--------------------| 
D|----4------4-------4-------4-------4-------4-------4-------3--------------------| 
A|--------------------------------------------------------------------------------| 
E|-4------4-------4-------4-------4-------4------4-------3------------------------| 
          Far     from    the     nightlife now... 
e|-----2--------2--------2-------2-------2----------2----------2-----------3---------| 
B|-----2--------2--------2-------2-------2----------2----------2-----------3---------| 
G|-----1--------1--------1-------1-------1----------1----------1-----------2---------| 
D|-----2--------2--------2-------2-------2----------2----------2-----------3---------| 
A|-----------------------------------------------------------------------------------| 
E|-2--------2--------2--------2-------2--------2------------2---------3--------------|  
      Poor                father's                       daughters... 

Repeat, 2nd time end on the 2 shape 
and go into... 
e|-----------------------------------------------------------------------------------| 
B|-----5------------------7------------------7/9--------------------9----------------| 
G|-----5-------5----------5-------5----------0----------0-----------0--------0-------| 
D|-----5----------5-------5---------5--------0-------------0--------0-----------0----| 
A|-----------------------------------------------------------------------------------| 
E|-5-------5-----------5------5---------0-----------0-----------0--------0-----------| 
   And even if                    you don't get                           oh my drift 
e|-------------------------------------------------------------------------------------------| 
B|------7----------------------9p7--------------------9p7-----------------9p7----------------| 
G|------7----------7-----------7----------7-----------7---------7---------7------------------| 
D|------7-------------7--------7------------7---------7-----------7-------7------7---6-------| 
A|-------------------------------------------------------------------------------------------| 
E|-7----------7-----------7----------7-----------7----------7----------7-------7---6---------| 

Repeat 
and go into.... 

Chorus: 
e|---------------------------------------------------------------------------------------| 
B|-------5------5h7----5---------5--------5-----------5---------5---------5---------7----| 
G|-------5------5------5---------5--------5-----------5---------5---------5---------7----| 
D|-------5-------------5---------5--------5-----------5---------5---------5---------7----| 
A|---------------------------------------------------------------------------------------| 
E|--5-----------5-----------5---------5----------5----------5---------5--------7---------| 
 Yeah from rotten ol' me    
e|------12-------------12------------------12------------------12--------------| 
B|------------12---------------12------------------12-------------------7-----| 
G|-----------------------------------------------------------------------------| 
D|------9--------9-----9-----------9-------9-----------9-------9------------7--| 
A|-----------------------------------------------------------------------------| 
E|-9--------9-------9-------9----------9--------9----------9--------7----------| 

e|---------------------------------------------------------------------------------------| 
B|-------5------5h7----5---------5--------5-----------5---------5---------5---------4----| 
G|-------5------5------5---------5--------5-----------5---------5---------5---------4----| 
D|-------5-------------5---------5--------5-----------5---------5---------5---------4----| 
A|---------------------------------------------------------------------------------------| 
E|--5-----------5-----------5---------5----------5----------5---------5--------4---------| 
  rotten ol' me 
e|---------------------------------------------------------------------------| 
B|----2----2-----2-----1------2------1------2------1---------------------------------| 
G|----0----0-----0-----0------0------0------0------0---------------------------------| 
D|----0----0-----0-----0------0------0------0------0---------------------------------| 
A|----2----2-----2-----1------2------1------2------1---------------------------------| 
E|---------------------------------------------------------------------------| 
  

top 5 | shakey graves
top diversos
Outras músicas do artista letras do(a) Shakey Graves
Top cifras »Top artistas »
Petaxxon Comunicação Online
Cifras.com.br - Melhor e mais completo site de cifras e tablaturas do Brasil
Mais de 1 milhão de acordes de músicas cadastradas desde 2003
As informações contidas no nosso site são colaborações de seus usuários e podem conter erros, sendo assim, não nos responsabilizamos sobre nenhuma destas.
close
menos
mais
close
Cor dos acordes:

Cor da letra:

 

save
close
close
 
redimensionar