Cifras e Tablaturas
Sham 69

Sham 69

Ulster Boy

Cifras Cancelar Versão de Impressão

Sham 69 - Ulster Boy

Tom: A

  			
Intro+Verse 
  A5         C5              D5              E5 
e|------------------------------------------------------------| 
B|------------------------------------------------------------| 
G|------------------------------------------------------------| 
D|7-7-7--7-7-10-10-10--10-10-12-12-12--12-12-14-14-14--14-14--| 
A|7-7-7--7-7-10-10-10--10-10-12-12-12--12-12-14-14-14--14-14--| 
E|5-5-5--5-5--8--8--8---8--8-10-10-10--10-10-12-12-12--12-12--| 

  A5         C5              D5              A5 
e|------------------------------------------------------------| 
B|------------------------------------------------------------| 
G|------------------------------------------------------------| 
D|7-7-7--7-7-10-10-10--10-10-12-12-12--12-12-7-7-7--7-7-------| 
A|7-7-7--7-7-10-10-10--10-10-12-12-12--12-12-7-7-7--7-7-------| 
E|5-5-5--5-5--8--8--8---8--8-10-10-10--10-10-5-5-5--5-5-------| 

Chorus 
  G5        F5 F#5 
e|-----------------| 
B|-----------------| 
G|-----------------| 
D|5----5--5--2--3--| 
A|5----5--5--2--3--| 
E|3----3--3--1--2--|X7 

Solo 
e|---------------------------------------7-5------------------| 
B|------------------------5-----5---8-5------8-5-8-5-8-5------| 
G|-----5---7-5-------5-7--------------------------------------| 
D|7------7-----7-5-7------------------------------------------| 
A|------------------------------------------------------------| 
E|------------------------------------------------------------| 
    	
fixar
fixar inscrever-se

enviado porenviado por: VsWorld
cifra enviadaCorrigida por: sem correções
logo top cifrasComente
ico música do artistaMúsicas deste artista
ico curtiuCurtiu?
ico destaqueDestaque
Petaxxon Comunicação Online

Cifras.com.br - Melhor e mais completo site de cifras e tablaturas do Brasil Mais de 1 milhão de acordes de músicas cadastradas desde 2003
As informações contidas no nosso site são colaborações de seus usuários e podem conter erros, sendo assim, não nos responsabilizamos sobre nenhuma destas.

close
menos
mais
close
Cor dos acordes:

Cor da letra:

close
Alinhar acordes a direita Alinhar acordes a esquerda Alinhar acordes em baixo Alinhar acordes no topo
close
  Mostrar todos os acordes Esconder acordes muito fáceis Esconder acordes fáceis Esconder acordes intermediários
redimensionar
glossário