Cifras e Tablaturas
Shawn James

Shawn James

The Wanderer

Cifras Cancelar Versão de Impressão
cifras

Shawn James - The Wanderer

fixar na tela  
Exibindo: vídeo-aula ver clipes redimensionar

Tom:

  
e|------0h3p0----------------------------|------0h3p0---------------------------------| 
B|--------------0h3p0--------------------|--------------0h3p0-------------------------| 
G|----------------------0h2p0----------0-|----------------------0h2p0----------0------| 
D|------------------------------0h2----2-|------------------------------0h2----2------|x10 
A|-------------------------------------2-|-------------------------------------2------| 
E|-------------------------------------0-|-------------------------------------0------| 

e|-----0h3p0-------0h3p0---3/5----0h3p0-|--------------------------------------| 
B|-------------3------------------------|-3p0----------------------------------| 
G|--------------------------------------|------2-------0-----------------------|x2 
D|--------------------------------------|---------2----2-----------------------| 
A|--------------------------------------|--------------2-----------------------| 
E|--------------------------------------|--------------0-----------------------| 

e|------0h3p0----------------------------|------0h3p0---------------------------------| 
B|--------------0h3p0--------------------|--------------0h3p0-------------------------| 
G|----------------------0h2p0----------0-|----------------------0h2p0----------0------| 
D|------------------------------0h2----2-|------------------------------0h2----2------|x11 
A|-------------------------------------2-|-------------------------------------2------| 
E|-------------------------------------0-|-------------------------------------0------| 

************************************ 

| h   Hammer-on 
| p   Pull-off 

************************************ 
  

top 5 | shawn james
top rock'n roll
Outras músicas do artista letras do(a) Shawn James
Top cifras »Top artistas »
Petaxxon Comunicação Online
Cifras.com.br - Melhor e mais completo site de cifras e tablaturas do Brasil
Mais de 1 milhão de acordes de músicas cadastradas desde 2003
As informações contidas no nosso site são colaborações de seus usuários e podem conter erros, sendo assim, não nos responsabilizamos sobre nenhuma destas.
close
menos
mais
close
Cor dos acordes:

Cor da letra:

 

save
close
close
 
redimensionar