Cifras e Tablaturas
Silent Planet

Silent Planet

Firstwake

Cifras Cancelar Versão de Impressão
cifras

Silent Planet - Firstwake

fixar na tela  
Exibindo: vídeo-aula ver clipes redimensionar
  
Tuning: Bb F Bb Eb G C 
 

Riff 1a, Guitar 1 & 2 - 00:00 - 00:19 
- ----------------------------------------------------------------- 
- -5-5---5---5---5---5-5-5-5-5-5-5-5-5---5---5---5---5-5-5-5-5-5-5- 
- -2-2---2---2---2---2-2-2-2-2-2-2-2-2---2---2---2---2-2-2-2-2-2-2- 
- -3-3---3---3---3---3-3-3-3-3-3-3-3-3---3---3---3---3-3-3-3-3-3-3- 
- ----------------------------------------------------------------- 
- ----------------------------------------------------------------- 
- 
- ----------------------------------------------------------------- 
- ----------------------------------------------------------------- 
- ----------------------------------------------------------------- 
- ----------------------------------------------------------------- 
- -5-5---5---5---5---5-5-5-5-5-5-5-5-5---5---5---5---5-5-5-5-5-5-5- 
- -7-7---7---7---7---7-7-7-7-7-7-7-7-7---7---7---7---7-7-7-7-7-7-7- 


- --------------------------------------------------------------------------------- 
- -5--5---5---5---5---5--5--5--5--5--5--5--5--5---5---5---5---5--5--5--5--5--5--5-- 
- -x--x---x---x---x---x--x--x--x--x--x--x--x--x---x---x---x---x--x--x--x--x--x--x-- 
- -3--3---3---3---3---3--3--3--3--3--3--3--3--3---3---3---3---3--3--3--3--3--3--3-- 
- -5--5---5---5---5---5--5--5--5--5--5--5--5--5---5---5---5---5--5--5--5--5--5--5-- 
- --------------------------------------------------------------------------------- 
- 
- --------------------------------------------------------------------------------- 
- --------------------------------------------------------------------------------- 
- --------------------------------------------------------------------------------- 
- --------------------------------------------------------------------------------- 
- -7--7---7---7---7---7--7--7--7--7--7--7--7--7---7---7---7---7--7--7--7--7--7--7-- 
- -10-10--10--10--10--10-10-10-10-10-10-10-10-10--10--10--10--10-10-10-10-10-10-10- 


- ----------------------------------------------------------------- 
- -5-5---5---5---5---5-5-5-5-5-5-5-5-5---5---5---5---5-5-5-5-5-5-5- 
- -2-2---2---2---2---2-2-2-2-2-2-2-2-2---2---2---2---2-2-2-2-2-2-2- 
- -3-3---3---3---3---3-3-3-3-3-3-3-3-3---3---3---3---3-3-3-3-3-3-3- 
- ----------------------------------------------------------------- 
- ----------------------------------------------------------------- 
- 
- ----------------------------------------------------------------- 
- ----------------------------------------------------------------- 
- ----------------------------------------------------------------- 
- ----------------------------------------------------------------- 
- -5-5---5---5---5---5-5-5-5-5-5-5-5-5---5---5---5---5-5-5-5-5-5-5- 
- -7-7---7---7---7---7-7-7-7-7-7-7-7-7---7---7---7---7-7-7-7-7-7-7- 


- --------------------------------------------------------------------------------- 
- -6--6---6---6---6---6--6--6--6--6--6--6--6--6---6---6---6---6--6--6--6--6--6--6-- 
- -x--x---x---x---x---x--x--x--x--x--x--x--x--x---x---x---x---x--x--x--x--x--x--x-- 
- -3--3---3---3---3---3--3--3--3--3--3--3--3--3---3---3---3---3--3--3--3--3--3--3-- 
- -5--5---5---5---5---5--5--5--5--5--5--5--5--5---5---5---5---5--5--5--5--5--5--5-- 
- --------------------------------------------------------------------------------- 
- 
- --------------------------------------------------------------------------------- 
- --------------------------------------------------------------------------------- 
- --------------------------------------------------------------------------------- 
- --------------------------------------------------------------------------------- 
- -7--7---7---7---7---7--7--7--7--7--7--7--7--7---7---7---7---7--7--7--7--7--7--7-- 
- -10-10--10--10--10--10-10-10-10-10-10-10-10-10--10--10--10--10-10-10-10-10-10-10- 


Riff 1b - 00:00 - 00:19 - x4 
   T     L     T     T     L     T     T     L     T     T     L     T     T     L     T 
- -------------20p15-------------20p15-------------20p15-------------20p15------------------------- 
- -------15h17-------------15h17-------------15h17-------------15h17-------------15h17-18p17p15h17- 
- -22p14-------------22p14-------------22p14-------------22p14-------------22p14------------------- 
- ------------------------------------------------------------------------------------------------- 
- ------------------------------------------------------------------------------------------------- 
- ------------------------------------------------------------------------------------------------- 

Riff 1c - 00:00 - 00:19 
- ----------------------------------------------------------------- 
- ----------------------------------------------------------------- 
- -14-------------\12-------------/14-------------\12-----/16------ 
- ----------------------------------------------------------------- 
- ----------------------------------------------------------------- 
- ----------------------------------------------------------------- 


Riff 2, Guitar 1 & 2 - 00:19 - 00:39 
- ----------------------------------------------------------------- 
- -6-------6-------6-------6-------5-------5-------5-------5------- 
- -x-------x-------x-------x-------x-------x-------x-------x------- 
- -8-------8-------8-------8-------2-------2-------2-------2------- 
- -5-------5-------5-------5-------3-------3-------3-------3------- 
- ----------------------------------------------------------------- 
- 
- ----------------------------------------------------------------- 
- ----------------------------------------------------------------- 
- ---------------------------------2---------------2--------------- 
- -3---------------3---------------3---------------3--------------- 
- -5---------------5---------------x---------------x--------------- 
- -0---------------0---------------3---------------3--------------- 


- --------------------------------------------------------------------- 
- -6-------6-------6-------6-------5-------5-------5-------5-5-5-5-5-5- 
- -x-------x-------x-------x-------x-------x-------x-------x-x-x-x-x-x- 
- -8-------8-------8-------8-------3-------3-------3-------3-3-3-3-3-3- 
- -5-------5-------5-------5-------7-------7-------7-------7-7-7-7-7-7- 
- --------------------------------------------------------------------- 
- 
- --------------------------------------------------------------------- 
- --------------------------------------------------------------------- 
- --------------------------------------------------------------------- 
- -3---------------3--------------------------------------------------- 
- -5---------------5---------------7---------------7-------7-7-7-7-7-7- 
- -0---------------0---------------3---------------3-------3-3-3-3-3-3- 


Riff 2b - 00:19 - 00:39 
- ---------13---------------------------------12------------------- 
- -12---------11--------------------------/10---------------------- 
- ---------------10------------------------------7/9--------------- 
- ----------------------------------------------------------------- 
- ----------------------------------------------------------------- 
- ----------------------------------------------------------------- 
- 
- ----------------------------------------------------------------- 
- ----------------------------------------------------------------- 
- ----------------------------------------------------------------- 
- ----------------------------------------------------------------- 
- ----------------------------------------------------------------- 
- ----------------------------------------------------------------- 


- ---------13---------------------------------12------------------- 
- ------------11--------------------------/10---------------------- 
- ---------------10------------------------------7/9--------------- 
- ----------------------------------------------------------------- 
- ----------------------------------------------------------------- 
- ----------------------------------------------------------------- 
- 
- ---------------24--------24b----------------20------------------- 
- ------------22-------------------20------------17/18------------- 
- ---------19------------------------------------------------------ 
- ----------------------------------------------------------------- 
- ----------------------------------------------------------------- 
- ----------------------------------------------------------------- 


Riff 3a, Guitar 1 & 2 - 00:39 - 00:58 
- ----------------------------------------------------------------- 
- -6-6---6---6---6---6-6-6-6-6-6-6-6-6---6---6---6---6-6-6-6-6-6-6- 
- -x-x---x---x---x---x-x-x-x-x-x-x-x-x---x---x---x---x-x-x-x-x-x-x- 
- -7-7---7---7---7---7-7-7-7-7-7-7-7-7---7---7---7---7-7-7-7-7-7-7- 
- -5-5---5---5---5---5-5-5-5-5-5-5-5-5---5---5---5---5-5-5-5-5-5-5- 
- ----------------------------------------------------------------- 
- 
- ----------------------------------------------------------------- 
- ----------------------------------------------------------------- 
- ----------------------------------------------------------------- 
- ----------------------------------------------------------------- 
- -5-5---5---5---5---5-5-5-5-5-5-5-5-5---5---5---5---5-5-5-5-5-5-5- 
- -7-7---7---7---7---7-7-7-7-7-7-7-7-7---7---7---7---7-7-7-7-7-7-7- 


- --------------------------------------------------------------------------------- 
- -5--5---5---5---5---5--5--5--5--5--5--5--5--5---5---5---5---5--5--5--5--5--5--5-- 
- -x--x---x---x---x---x--x--x--x--x--x--x--x--x---x---x---x---x--x--x--x--x--x--x-- 
- -3--3---3---3---3---3--3--3--3--3--3--3--3--3---3---3---3---3--3--3--3--3--3--3-- 
- -7--7---7---7---7---7--7--7--7--7--7--7--7--7---7---7---7---7--7--7--7--7--7--7-- 
- --------------------------------------------------------------------------------- 
- 
- --------------------------------------------------------------------------------- 
- --------------------------------------------------------------------------------- 
- --------------------------------------------------------------------------------- 
- --------------------------------------------------------------------------------- 
- -7--7---7---7---7---7--7--7--7--7--7--7--7--7---7---7---7---7--7--7--7--7--7--7-- 
- -10-10--10--10--10--10-10-10-10-10-10-10-10-10--10--10--10--10-10-10-10-10-10-10- 


- ----------------------------------------------------------------- 
- -6-6---6---6---6---6-6-6-6-6-6-6-6-6---6---6---6---6-6-6-6-6-6-6- 
- -x-x---x---x---x---x-x-x-x-x-x-x-x-x---x---x---x---x-x-x-x-x-x-x- 
- -8-8---8---8---8---8-8-8-8-8-8-8-8-8---8---8---8---8-8-8-8-8-8-8- 
- -5-5---5---5---5---5-5-5-5-5-5-5-5-5---5---5---5---5-5-5-5-5-5-5- 
- ----------------------------------------------------------------- 
- 
- ----------------------------------------------------------------- 
- ----------------------------------------------------------------- 
- ----------------------------------------------------------------- 
- ----------------------------------------------------------------- 
- -8-8---8---8---8---8-8-8-8-8-8-8-8-8---8---8---8---8-8-8-8-8-8-8- 
- -5-5---5---5---5---5-5-5-5-5-5-5-5-5---5---5---5---5-5-5-5-5-5-5- 


- ----------------------------------------------------------------- 
- -5-5---5---5---5---5-5-5-5-5-5-5-5-5---5---5---5---5-5-5-5-5-5-5- 
- -x-x---x---x---x---x-x-x-x-x-x-x-x-x---x---x---x---x-x-x-x-x-x-x- 
- -3-3---3---3---3---3-3-3-3-3-3-3-3-3---3---3---3---3-3-3-3-3-3-3- 
- -7-7---7---7---7---7-7-7-7-7-7-7-7-7---7---7---7---7-7-7-7-7-7-7- 
- ----------------------------------------------------------------- 
- 
- ----------------------------------------------------------------- 
- ----------------------------------------------------------------- 
- ----------------------------------------------------------------- 
- ----------------------------------------------------------------- 
- -7-7---7---7---7---7-7-7-7-7-7-7-7-7---7---7---7---7-7-7-7-7-7-7- 
- -3-3---3---3---3---3-3-3-3-3-3-3-3-3---3---3---3---3-3-3-3-3-3-3- 


- ----------------------------------------------------------------- 
- -5-5---5---5---5---5-5-5-5-5-5-5-5-5---5---5---5---5-5-5-5-5-5-5- 
- -x-x---x---x---x---x-x-x-x-x-x-x-x-x---x---x---x---x-x-x-x-x-x-x- 
- -2-2---2---2---2---2-2-2-2-2-2-2-2-2---2---2---2---2-2-2-2-2-2-2- 
- -3-3---3---3---3---3-3-3-3-3-3-3-3-3---3---3---3---3-3-3-3-3-3-3- 
- ----------------------------------------------------------------- 
- 
- ----------------------------------------------------------------- 
- ----------------------------------------------------------------- 
- ----------------------------------------------------------------- 
- -3-3---3---3---3---3-3-3-3-3-3-3-3-3---3---3---3---3-3-3-3-3-3-3- 
- -x-x---x---x---x---x-x-x-x-x-x-x-x-x---x---x---x---x-x-x-x-x-x-x- 
- -2-2---2---2---2---2-2-2-2-2-2-2-2-2---2---2---2---2-2-2-2-2-2-2- 


Riff 3b - 00:39 - 00:58 
   T     L     T     T     L     T     T     L     T     T     L     T     T     L     T 
- -------------20p15-------------20p15-------------20p15-------------20p15------------------------- 
- -------15h17-------------15h17-------------15h17-------------15h17-------------15h17-18p17p15h17- 
- -22p14-------------22p14-------------22p14-------------22p14-------------22p14------------------- 
- ------------------------------------------------------------------------------------------------- 
- ------------------------------------------------------------------------------------------------- 
- ------------------------------------------------------------------------------------------------- 

   T     L     T     T     L     T     T     L     T     T     L     T     T     L     T 
- -------------20p15-------------20p15-------------20p15-------------20p15------------------------- 
- -------15h17-------------15h17-------------15h17-------------15h17-------------15h17-18p17p15h17- 
- -22p14-------------22p14-------------22p14-------------22p14-------------22p14------------------- 
- ------------------------------------------------------------------------------------------------- 
- ------------------------------------------------------------------------------------------------- 
- ------------------------------------------------------------------------------------------------- 

   T     L     T     T     L     T     T     L     T     T     L     T     T     L     T 
- -------------20p15-------------20p15-------------20p15-------------20p15------------------------- 
- -------15h17-------------15h17-------------15h17-------------15h17-------------15h17-18p17p15h17- 
- -22p14-------------22p14-------------22p14-------------22p14-------------22p14------------------- 
- ------------------------------------------------------------------------------------------------- 
- ------------------------------------------------------------------------------------------------- 
- ------------------------------------------------------------------------------------------------- 

   T     L     T     T     L     T     T     L     T     T     L     T     T     L     T 
- -------------24p15-------------24p15-------------24p15-------------24p15------------------------- 
- -------15h17-------------15h17-------------15h17-------------15h17-------------15h17-18p17p15h17- 
- -24p14-------------24p14-------------24p14-------------24p14-------------22p14------------------- 
- ------------------------------------------------------------------------------------------------- 
- ------------------------------------------------------------------------------------------------- 
- ------------------------------------------------------------------------------------------------- 

Riff 1c - 00:39 - 00:58 


Riff 4, Guitar 1 & 2 - 00:58 - 01:17 
- ----------------------------------------------------------------- 
- -6---------------5---------------6---------------6--------------- 
- -x---------------x---------------x---------------x--------------- 
- -7---------------3---------------8---------------5--------------- 
- -5---------------7---------------x-----------------------7------- 
- ---------------------------------5------------------------------- 
- 
- -13----------------------------------------------12------15------ 
- ----------------------------------------------------------------- 
- -----------------14--------------15------------------------------ 
- ----------------------------------------------------------------- 
- ----------------------------------------------------------------- 
- ----------------------------------------------------------------- 


Riff 5 - 01:17 - 01:36 - x4 
- -------------------------------------------------------------------- 
- -------------------------------------------------------------------- 
- -------------------------------------------------------------------- 
- -----------------------------------------------------------14------- 
- -------------------------------------------------7---------------12- 
- -0-0-0---0-0-0---0-0-0---0-0-0---0-0-0---0-0-0-----0h3h7-0----10---- 
PM                                                         . 


Riff 6, Guitar 1 & 2 - 01:36 - 01:55 - x2 
- ---------------------------------------------------------------------- 
- ---------------------------------------------------------------------- 
- ----------------------------------------------9----------------------- 
- ---------------3-----------14----------------------------------------- 
- ---------5-----7-----------------12---------8-----7---------------5- 
- -0-----0---0-------0h3h7-0----10----0-----0-----------3-2-0-2---2----- 
PM                         .                                      . 
- ---------------------------------------------------------------------- 
- ---------------------------------------------------------------------- 
- ----------------------------------------------9----------------------- 
- ---------------3-----------14-------------------------------------5- 
- ---------5-----7-----------------12---------8-----7------------------- 
- -0-----0---0-------0h3h7-0----10----0-----0-----------3-2-0-2---2----- 
PM                         .                                      . 


- ------------------------------------------------------------------------------------ 
- ------------------------------------------------------------------------------------ 
- ------------------------------------10-10-10-10-10-10-10-10-12-12-12-12-12-12-12-12- 
- ---------------3-----------14-------14-14-14-14-14-14-14-14-14-14-14-14-14-14-14-14- 
- ---------5-----7-----------------12------------------------------------------------- 
- -0-----0---0-------0h3h7-0----10---------------------------------------------------- 
PM                         . 
- ------------------------------------------------------------------------------------ 
- ------------------------------------------------------------------------------------ 
- ------------------------------------------------------------------------------------ 
- ------------------------------------------------------------3--3--3--3--3--3--3--3-- 
- ---------5-----7-----------------12-7--7--7--7--7--7--7--7--x--x--x--x--x--x--x--x-- 
- -0-----0---0-------0h3h7-0----10----3--3--3--3--3--3--3--3--2--2--2--2--2--2--2--2-- 
PM                         . 


Riff 7a, Guitar 1 & 2 - 01:55 - 02:05 
- ------------------------------------------------------------ 
- ------------------------------------------------------------ 
- ------------------------------------------------------------ 
- ---------------------------------------------------14------- 
- ---------------------------------------------------------12- 
- -0-----0-----0-----0-----0-----0-----0-----0----------10---- 
- 
- ------------------------------------------------------------ 
- ------------------------------------------------------------ 
- ------------------------------------------------------------ 
- ---------------------------------------------------14------- 
- ---------------------------------------------------------12- 
- -0-----0-----0-----0-----0-----0-----0-----0----------10---- 


- ----------------------------3--------------------------------------------------------------- 
- ----------------------------3--------------------------------------------------------------- 
- ---------------------------------------------------------------------------------------------- 
- --------------------------------------------3-10-10-10-10-10-10-10-10-12-12-12-12-12-12-12-12- 
- ----------------------------------------3-----14-14-14-14-14-14-14-14-14-14-14-14-14-14-14-14- 
- -0-----0-----0-----333----0---------7--------------------------------------------------- 
- 
- ---------------------------------------------------------------------------------------------- 
- ---------------------------------------------------------------------------------------------- 
- ---------------------------------------------------------------------------------------------- 
- --------------------------------------------3-------------------------3--3--3--3--3--3--3--3-- 
- -------------------333------------3-----7--7--7--7--7--7--7--7--x--x--x--x--x--x--x--x-- 
- -0-----0-----0--------------3-0---------7---3--3--3--3--3--3--3--3--2--2--2--2--2--2--2--2-- 


Riff 7b, Guitar 1 & 2 - 01:55 - 02:05 
- ----------------------------------------------------------------- 
- ----------------------------------------------------------------- 
- ----------------------------------------------------------------- 
- -12-------------\7--------------/12-------------\8--------------- 
- ----------------------------------------------------------------- 
- ----------------------------------------------------------------- 
- 
- ----------------------------------------------------------------- 
- ----------------------------------------------------------------- 
- -----------------14-------------/15-------------\10-------------- 
- -12-------------------------------------------------------------- 
- ----------------------------------------------------------------- 
- -----------------------------------------------------------------  
  

top 5 | silent planet
top rock'n roll
Outras músicas do artista letras do(a) Silent Planet
Top cifras »Top artistas »
Petaxxon Comunicação Online
Cifras.com.br - Melhor e mais completo site de cifras e tablaturas do Brasil
Mais de 1 milhão de acordes de músicas cadastradas desde 2003
As informações contidas no nosso site são colaborações de seus usuários e podem conter erros, sendo assim, não nos responsabilizamos sobre nenhuma destas.
close
menos
mais
close
Cor dos acordes:

Cor da letra:

 

save
close
close
 
redimensionar