Cifras e Tablaturas
Silent Planet

Silent Planet

Panic Room

Cifras Cancelar Versão de Impressão
cifras

Silent Planet - Panic Room

fixar na tela  
Exibindo: vídeo-aula ver clipes redimensionar

Tom:

  
Tuning: Bb F Bb Eb G C 
 
Riff 1, Guitar 1 & 2 - 00:00 - 00:25 
- ----------------------------------------------------------------- 
- ---------11--------------------------------------10-------------- 
- -----------------14------10--------------10---------------------- 
- -12------------------------------14----------------------14------ 
- ----------------------------------------------------------------- 
- ----------------------------------------------------------------- 
- 
- ----------------------------------------------------------------- 
- -17-------------------------------------------------------------- 
- -14-------------------------------------------------------------- 
- -12-------------------------------------------------------------- 
- ----------------------------------------------------------------- 
- ----------------------------------------------------------------- 


- ----------------------------------------------------------------- 
- ---------11--------------------------------------10-------------- 
- -----------------14------10--------------10---------------------- 
- -12------------------------------14----------------------14------ 
- ----------------------------------------------------------------- 
- ----------------------------------------------------------------- 
- 
- ----------------------------------------------------------------- 
- -17-------------------------------------------------------------- 
- -14-------------------------------------------------------------- 
- -12-------------------------------------------------------------- 
- ----------------------------------------------------------------- 
- ----------------------------------------------------------------- 


- ----------------------------------------------------------------- 
- ---------11--------------------------------------10-------------- 
- -----------------14------10--------------10---------------------- 
- -12------------------------------14----------------------14------ 
- ----------------------------------------------------------------- 
- ----------------------------------------------------------------- 
- 
- -17-------------------------------------------------------------- 
- -17-------------------------------------------------------------- 
- -14-------------------------------------------------------------- 
- -12-------------------------------------------------------------- 
- ----------------------------------------------------------------- 
- ----------------------------------------------------------------- 


- ----------------------------------------------------------------- 
- ---------11--------------------------------------10-------------- 
- -----------------14------10--------------10---------------------- 
- -12------------------------------14----------------------14------ 
- ----------------------------------------------------------------- 
- ----------------------------------------------------------------- 
- 
- -17-------------------------------------------------------------- 
- -17-------------------------------------------------------------- 
- -14-------------------------------------------------------------- 
- -12-------------------------------------------------------------- 
- ----------------------------------------------------------------- 
- ----------------------------------------------------------------- 


Riff 2, Guitar 1 & 2 - 00:25 - 00:38 
- ----------------------------------------------------------------- 
- ----------------------------------------------------------------- 
- -----------------------------8----------------------------------- 
- ---------------------------0---0--------------------------------- 
- -5-----6-----5-------3---6-------5-----6-----5------------------- 
- ---0-----0-----1---0---5-----------0-----0-----1---0-1----------- 
- 
- ----------------------------------------------------------------- 
- ----------------------------------------------------------------- 
- -----------------------------8----------------------------------- 
- ---------------------------0---0--------------------------------- 
- -5-----6-----5-------3---6-------5-----6-----5------------------- 
- ---0-----0-----1---0---5-----------0-----0-----1---0-1----------- 


- ----------------------------------------------------------------------- 
- ----------------------------------------------------------------------- 
- -----------------------------8-------------------------8~-------------- 
- ---------------------------0---0-------------1-----0h5~---------------- 
- -5-----6-----5-------3---6-------------------------------9~------------ 
- ---0-----0-----1---0---5---------1-0---5-0-----1----------------------- 
-                                                                L L  T 
- ----------------------------------------------------------------------- 
- -----------------------------------------------------------------10-15- 
- -----------------------------8-------------------------8-------8------- 
- ---------------------------0---0-------------1-----0h5---5p4p0--------- 
- -5-----6-----5-------3---6--------------------------------------------- 
- ---0-----0-----1---0---5---------1-0---5-0-----1----------------------- 


Riff 3a - 00:38 - 00:51 
- ----------------------------------------------------------------- 
- ----------------------------------------------------------------- 
- -------0-----------0--------------------------------------------- 
- ---------4-----------4-----------0-----0-----0-----0------------- 
- ---------------------------------0-----0-----0-----0------------- 
- -1-----------1-----------1br-1br-0-----0-----0-----0------------- 

Riff 3b - 00:38 - 00:51 
- ----------------------------------------------------------------- 
- -20------------------------------15------------------------------ 
- ----------------------------------------------------------------- 
- ----------------------------------------------------------------- 
- ----------------------------------------------------------------- 
- ----------------------------------------------------------------- 
AP ............................................................... 

- -------------------15-14-------------------15/18-17-18-------17----17---------------------------- 
- ----------16-15-------------------16-15----------------15----------------------------------16---- 
- -------12-------12-------------12-------12----------------15----15----12-------12---------------- 
- -13-12-------------------13-12-------------------------------------------13-12----12-13-12----12- 
- ------------------------------------------------------------------------------------------------- 
- ------------------------------------------------------------------------------------------------- 

Riff 4, Guitar 1 & 2 - 00:51 - 01:04 
- ----------------------------------------------------------------- 
- ----------------------------------------------------------------- 
- ----------------------------------------------------------------- 
- ----------------------------------------------------------------- 
- -----------0---0-------0---------------0---------------0---0----- 
- -1-0-------0---0---0---0-----------0---0-----------0---0---0---0- 
PM           .....       .               .               ..... 
- ----------------------------------------------------------------- 
- ----------------------------------------------------------------- 
- ----------------------------------------------------------------- 
- ----------------------------------------------------------------- 
- -----------0---0-------0---------------0---------------0---0----- 
- -1-0-------0---0---0---0-----------0---0-----------0---0---0---0- 
PM           .....       .               .               ..... 


- ----------------------------------------------------------------- 
- ----------------------------------------------------------------- 
- -------------------------------------------------------------8--- 
- ----------------------------------------------------------------- 
- -----------------------0---0---0-------0-----------------6-5---5- 
- -1-0---------------0---0---0---0---0---0-----------0---0--------- 
PM                       .........       . 
- ---------------------------------------------------------------------- 
- ----------------------------------------------------------------16---- 
- ---------------------------------------------------------------------- 
- ----------------------------------------------------------13-12----12- 
- -----------------------0---0---0-------0---------------10------------- 
- -1-0---------------0---0---0---0---0---0-----------0------------------ 
PM                       .........       . 


Riff 5a - 01:04 - 01:16 
- ----------------------------------------------------------------- 
- ----------------------------------------------------------------- 
- -------0-----------0--------------------------------------------- 
- ---------4-----------4-----------0-----0-----0-----0------------- 
- ---------------------------------0-----0-----0-----0------------- 
- -1-----------1-----------1br-1br-0-----0-----0-----0------------- 

- ----------------------------------------------------------------- 
- ----------------------------------------------------------------- 
- -------0-----------0--------------------------------------------- 
- ---------4-----------4-----------0-----0-----0-----0-----0---0--- 
- ---------------------------------0-----0-----0-----0-----0---0--- 
- -1-----------1-----------1br-1br-0-----0-----0-----0-----0---0--- 

Riff 5b - 01:04 - 01:16 
- -------------------15-14-------------------15/18-17-18-------17----17----------------------15-14- 
- ----------16-15-------------------16-15----------------15-------------------------16-15---------- 
- -------12-------12-------------12-------12----------------15----15----12-------12-------12------- 
- -13-12-------------------13-12-------------------------------------------13-12------------------- 
- ------------------------------------------------------------------------------------------------- 
- ------------------------------------------------------------------------------------------------- 


Riff 6a, Guitar 1 & 2 - 01:16 - 03:05 
- -15----------------------------------------------15----------------18---------------------------- 
- -------------16----------------------------------------------16---------------------------------- 
- -------------------------------------------------------------------------14---------------------- 
- -------------------17----16---------------------------------------------------------------------- 
- ------------------------------------------------------------------------------------------------- 
- ------------------------------------------------------------------------------------------------- 
- 
- ----------------------------------------------------------------------17------------------------- 
- -------15-------------13-------------------------------15---------------------------------------- 
- ----12-------------------14---------------------------------------/17---------------------------- 
- -------------------12-------------------------------13-------------------16---------------------- 
- ------------------------------------------------------------------------------------------------- 
- ------------------------------------------------------------------------------------------------- 


Riff 6b - 01:55 - 03:05 
- -15----------------17----------------18---------------20---------------- 
- ----11----------------13----------------15---------------16------------- 
- -------12----------------14----------------15---------------17---------- 
- ------------------------------------------------------------------------ 
- ------------------------------------------------------------------------ 
- ------------------------------------------------------------------------ 

- -10----------------8-----------------10---------------11---------------- 
- ----8-----------------10----------------11---------------11------------- 
- -------7-----------------11----------------12---------------11---------- 
- ------------------------------------------------------------------------ 
- ------------------------------------------------------------------------ 
- ------------------------------------------------------------------------ 

- -15----------------17----------------18---------------20---------------- 
- ----11----------------13----------------15---------------16------------- 
- -------12----------------14----------------15---------------17---------- 
- ------------------------------------------------------------------------ 
- ------------------------------------------------------------------------ 
- ------------------------------------------------------------------------ 

- -10----------------8-----------------10---------------11---------------- 
- ----8-----------------10----------------11---------------11------------- 
- -------7-----------------11----------------12---------------11---------- 
- ------------------------------------------------------------------------ 
- ------------------------------------------------------------------------ 
- ------------------------------------------------------------------------ 

- -15----------------17----------------18---------20----------22---------- 
- ----11----------------13----------------15---------16----------19------- 
- -------12----------------14----------------15---------17----------19---- 
- ------------------------------------------------------------------------ 
- ------------------------------------------------------------------------ 
- ------------------------------------------------------------------------ 


Riff 6c, Guitar 1 & 2 - 02:46 - 03:05 
- ----------------------------------------------------------------- 
- ----------------------------------------------------------------- 
- -----0-------0-------0-------0-------0-------0-------0-------0--- 
- -------0-------0-------0-------0-------0-------0-------0-------0- 
- ---------------------------------0-------0-------0-------0------- 
- -5-------5-------5-------5--------------------------------------- 
- 
- ----------------------------------------------------------------- 
- -20------------------------------22------------------------------ 
- ----------------------------------------------------------------- 
- ----------------------------------------------------------------- 
- ----------------------------------------------------------------- 
- ----------------------------------------------------------------- 


- ----------------------------------------------------------------- 
- ----------------------------------------------------------------- 
- -----0-------0-------0-------0-------0-------0-------0-------0--- 
- -------0-------0-------0-------0-------0-------0-------0-------0- 
- -1-------1-------1-------1-------3-------3-------5-------5------- 
- ----------------------------------------------------------------- 
- 
- -18------------------------------20--------------22-------------- 
- ----------------------------------------------------------------- 
- ----------------------------------------------------------------- 
- ----------------------------------------------------------------- 
- ----------------------------------------------------------------- 
- ----------------------------------------------------------------- 


Riff 7a - 03:05 - 03:58 - x2 
- ----------------------------------------------------------------- 
- ----------------------------------------------------------------- 
- -----------------0-------------------------------0--------------- 
- -----------------4-------------------------------4--------------- 
- ----------------------------------------------------------------- 
- -1-----------1-------------------1-----------1-----1---1---1---1- 

- ----------------------------------------------------------------- 
- -----------------10----------------------10---------------------- 
- -----------------x-----------------------x----------------------- 
- -0-----------0---8-0-----0-------0-----0-8---0---0-0-0-0-0-0-0-0- 
- -0-----------0---9-0-----0-------0-----0-9---0---0-0-0-0-0-0-0-0- 
- -0-----------0-----0-----0-------0-----0-----0---0-0-0-0-0-0-0-0- 

- -----------------5-------------------------------4--------------- 
- -----------------8-------------------------------8--------------- 
- -----------------7-------------------------------7--------------- 
- -5-----------5-------------------5-----------5-----5-----5------- 
- -6-----------6-------------------6-----------6-----6-----6------- 
- -5-----------5-------------------5-----------5-----5-----5------- 

- ----------------------------------------------------------------- 
- -----------------10----------------------10---------------------- 
- -----------------x-----------------------x----------------------- 
- -0-----------0---8-0-----0-------0-----0-8---0---0-0-0-0-0-0-0-0- 
- -0-----------0---9-0-----0-------0-----0-9---0---0-0-0-0-0-0-0-0- 
- -0-----------0-----0-----0-------0-----0-----0---0-0-0-0-0-0-0-0- 

Riff 7b - 03:58 - 03:31 
- -------------------15-14-------------------15-14-------------------15-14-------------------15-14- 
- -------15br-----------------------16-15----------------15br-----------------------16-15---------- 
- ----------------12-------------12-------12----------------------12-------------12-------12------- 
- -13-12-------------------13-12-------------------13-12-------------------13-12------------------- 
- ------------------------------------------------------------------------------------------------- 
- ------------------------------------------------------------------------------------------------- 

- -------------------15-14-------------------15-14-------------------15-14-------------------15-14- 
- -------15br-----------------------16-15----------------15br-----------------------16-15---------- 
- ----------------12-------------12-------12----------------------12-------------12-------12------- 
- -13-12-------------------13-12-------------------13-12-------------------13-12------------------- 
- ------------------------------------------------------------------------------------------------- 
- ------------------------------------------------------------------------------------------------- 

- -------------------15-14-------------------15-14-------------------15-14-------------------15-14- 
- -------15br-----------------------16-15----------------15br-----------------------16-15---------- 
- ----------------12-------------12-------12----------------------12-------------12-------12------- 
- -13-12-------------------13-12-------------------13-12-------------------13-12------------------- 
- ------------------------------------------------------------------------------------------------- 
- ------------------------------------------------------------------------------------------------- 

- -------------------15-14-------------------15/18-17-18-------17----17----------------------15-14- 
- -------15br-----------------------16-15----------------15----------------------15br-------------- 
- ----------------12-------------12-------12----------------15----15----12----------------12------- 
- -13-12-------------------13-12-------------------------------------------13-12------------------- 
- ------------------------------------------------------------------------------------------------- 
- ------------------------------------------------------------------------------------------------- 

Riff 7c - 03:42 - 03:58 
- -/23-----22\-----15----------------------------------------------/23-----22\----- 
- --------------------------------------------------------------------------------- 
- --------------------------------------------------------------------------------- 
- --------------------------------------------------------------------------------- 
- --------------------------------------------------------------------------------- 
- --------------------------------------------------------------------------------- 
AP                 ............................................... 

- -14----------------------------------------------14b------------- 
- ----------------------------------------------------------------- 
- ----------------------------------------------------------------- 
- ----------------------------------------------------------------- 
- ----------------------------------------------------------------- 
- ----------------------------------------------------------------- 
AP ............................................... 


Symbols 

PM... Palm Mute notes with (...) under them 
AP... Alternate Pick notes with (...) under them 
h     Hammer On 
p     Pull Off 
    Harmonic 
/     Slide Up 
\     Slide Down 
x     Dead Note 
b     Bend 
hb    Hold Bend 
p     Pre-Bend 
r     Release Bend 
(x )  Play Notes x amount of times 
~     Let Ring 
\\\   Pick Slide Down 
/ 3 \ Notes are triplets (3 notes in the space of two) 
w\    Whammy Bar Down 
w/    Whammy Bar Up 
T     Right Hand Tap 
L     Left Hand Tap 

:) 
  

top 5 | silent planet
top rock'n roll
Outras músicas do artista letras do(a) Silent Planet
Top cifras »Top artistas »
Petaxxon Comunicação Online
Cifras.com.br - Melhor e mais completo site de cifras e tablaturas do Brasil
Mais de 1 milhão de acordes de músicas cadastradas desde 2003
As informações contidas no nosso site são colaborações de seus usuários e podem conter erros, sendo assim, não nos responsabilizamos sobre nenhuma destas.
close
menos
mais
close
Cor dos acordes:

Cor da letra:

 

save
close
close
 
redimensionar