Cifras e Tablaturas
Simon Grossmann

Simon Grossmann

Luna Llena

Cifras Cancelar Versão de Impressão Print

Simon Grossmann - Luna Llena

Tom: E

  • 0:00 / 0:00
  			Intro 
This isnt exact but its close enough to get the idea.. 
        E 
e|----------x--- -x---------------x-----------------x-----------x-----------------| 
B|----------x--- -x---------------x-----------------x-----------x-----------------| 
G|----------x--- -x---------------x-----------------x-----------x-----------------| 
D|----------x-9- -x------11h9-----x-----7s9h11h9----x-----------x-------------x2--| 
A|---7s9h11-x---- x------------11-x--------------11-x-------9---x---7-------------| 
E|---0------x-0- -x--(0)-0--------x-(0)-0-----------x--(0)--0---x---0-------------| 



verse 1 
.....Lluna llena donde te has sido.... 
      E 
e||---------x--- -x---------------x--------------x-----------x---------x--| 
B|----------x--- -x---------------x--------------x-----------x---------x--| 
G|----------x--- -x---------------x--------------x-----------x---------x--| 
D|----------x-9- -x------11h9-----x-----11h9-----x-----------x---------x--| 
A|---7s9h11-x---- x------------11-x-----------11-x-------9---x---7-----x--| 
E|---0------x-0- -x--(0)-0--------x-(0)-0--------x--(0)--0---x---0-----x--| 

.....Te vi en el mes pasado y siento que este mes 
      A 
e|------x------x------------x-------x-------------------x-------------------| 
B|------x------x------------x-------x-------------------x-------------------| 
G|--7h9-x--9---x------12p9--x---9---x------12p9---12p9--x---9h11p9----------| 
D|--7---x--7---x------9--9--x---7---x------9------9-----x----------11--(9)--| 
A|--0---x--0---x--(0)-0-----x---0---x--(0)-0------0-----x-------------------| 
E|------x------x------------x-------x-------------------x-------------------| 


Chorus 
     E 
e|----------x--- -x---------------x-----------------x-----------x-----------------| 
B|----------x--- -x---------------x-----------------x-----------x-----------------| 
G|----------x--- -x---------------x-----------------x-----------x-----------------| 
D|----------x-9- -x------11h9-----x-----7s9h11h9----x-----------x-------------x2--| 
A|---7s9h11-x---- x------------11-x--------------11-x-------9---x---7-------------| 
E|---0------x-0- -x--(0)-0--------x-(0)-0-----------x--(0)--0---x---0-------------| 



************************************ 

| x    Dead note 
| h    Hammer-on 
| (n)  Ghost note 
| p    Pull-off 
  

************************************ 
    	

enviado porenviado por: educastilho
cifra enviadaCorrigida por: sem correções
logo top cifrasComente
ico música do artistaMúsicas deste artista
ico curtiuCurtiu?
ico destaqueDestaque
Petaxxon Comunicação Online

Cifras.com.br - Melhor e mais completo site de cifras e tablaturas do Brasil Mais de 1 milhão de acordes de músicas cadastradas desde 2003
As informações contidas no nosso site são colaborações de seus usuários e podem conter erros, sendo assim, não nos responsabilizamos sobre nenhuma destas.

close
menos
mais
close
Cor dos acordes:

Cor da letra:

close
Alinhar acordes a direita Alinhar acordes a esquerda Alinhar acordes em baixo Alinhar acordes no topo
close
  Mostrar todos os acordes Esconder acordes muito fáceis Esconder acordes fáceis Esconder acordes intermediários
redimensionar
glossário