Cifras e Tablaturas
Simple Plan

Simple Plan

Nostalgic

Cifras Cancelar Versão de Impressão
cifras

Simple Plan - Nostalgic

fixar na tela  
Exibindo: vídeo-aula ver clipes redimensionar

Tom:

  
Intro

  Guitar 1 
e|-----------------------------------------------------------------------------------------------------| 
B|-----------------------------------------------------------------------------------------------------| 
G|-----------------------------------------------------------------------------------------------------| 
D|--16h0--12h0--16h0--12h0--16h0--12h0--16h0--12--14~~~h0--12h0--14h0--12h0--14h0--12h0--14h0--12h0----| 
A|-----------------------------------------------------------------------------------------------------| 
E|-----------------------------------------------------------------------------------------------------| 

e|-----------------------------------------------------------------------------------------------------| 
B|-----------------------------------------------------------------------------------------------------| 
G|-----------------------------------------------------------------------------------------------------| 
D|--16h0--12h0--16h0--12h0--16h0--12h0--16h0--12--17~~~h0--16h0--14h0--12h0--14h0--16h0--14h0--12h0----| 
A|-----------------------------------------------------------------------------------------------------| 
E|-----------------------------------------------------------------------------------------------------| 

  Guitar 2 (You can figure out the strumming) 
e|-----------------------| 
B|---3-------------------| 
G|---2----2----4---------| 
D|---0----2----4----5----| 
A|--(0)---0----2----5----| 
E|------------------3----| 



VERSE 

  Rest 8 measures then this comes in (Palm Mute): 
e|---------------------------------------------------------------------| 
B|---------------------------------------------------------------------| 
G|---------------------------------------------------------------------| 
D|--4-4-4-4-4-4-4-4-4-4-4-4-4-4-4-4-2-2-2-2-2-2-2-2-2-2-2-2-2-2-2-2----| 
A|---------------------------------------------------------------------| 
E|---------------------------------------------------------------------| 

e|---------------------------------------------------------------------| 
B|---------------------------------------------------------------------| 
G|---------------------------------------------------------------------| 
D|--4-4-4-4-4-4-4-4-4-4-4-4-4-4-4-4------------------------------------| 
A|----------------------------------5-5-5-5-5-5-5-5-5-5-5-5-5-5-5-5----| 
E|---------------------------------------------------------------------| 



Pre-Chorus 

  Guitar 1 
e|-------------------------------------------------------------------| 
B|-------------------------------------------------------------------| 
G|--X-X-9---X-X-9---X-X-9---X-X-9-7~--7-7---7-7-7---7-7-7---7-7-7----| 
D|--X-X-X---X-X-X---X-X-X---X-X-X-X~--X-X---X-X-X---X-X-X---X-X-X----| 
A|--X-X-7---X-X-7---X-X-7---X-X-7-5~--5-5---5-5-5---5-5-5---5-5-5----| 
E|-------------------------------------------------------------------| 

e|-----------------------------------------------------------------------| 
B|-----------------------------------------------------------------------| 
G|--X-X-9---X-X-9---X-X-9---X-X-9-12~-12-12--11-11-11---9-9-9---7-7-7----| 
D|--X-X-X---X-X-X---X-X-X---X-X-X--X~--X--X---X--X--X---X-X-X---X-X-X----| 
A|--X-X-7---X-X-7---X-X-7---X-X-7-10~-10-10---9--9--9---7-7-7---5-5-5----| 
E|-----------------------------------------------------------------------| 

e|-------------------------------------------------------------------| 
B|-------------------------------------------------------------------| 
G|--X-X-9---X-X-9---X-X-9---X-X-9-7~--7-7---7-7-7---7-7-7---7-7-7----| 
D|--X-X-X---X-X-X---X-X-X---X-X-X-X~--X-X---X-X-X---X-X-X---X-X-X----| 
A|--X-X-7---X-X-7---X-X-7---X-X-7-5~--5-5---5-5-5---5-5-5---5-5-5----| 
E|-------------------------------------------------------------------| 

e|--------------------------------------| 
B|--------------------------------------| 
G|--X-X-9---X-X-9---X-X-9---X-X-9-7~----| 
D|--X-X-X---X-X-X---X-X-X---X-X-X-X~----| 
A|--X-X-7---X-X-7---X-X-7---X-X-7-5~----| 
E|--------------------------------------| 

  Guitar 2 
e|-------------------------------------------------------------------| 
B|-------------------------------------------------------------------| 
G|-------------------------------------------------------------------| 
D|--X-X-7---X-X-7---X-X-7---X-X-7-5~--5-5---5-5-5---5-5-5---5-5-5----| 
A|--X-X-7---X-X-7---X-X-7---X-X-7-5~--5-5---5-5-5---5-5-5---5-5-5----| 
E|--X-X-5---X-X-5---X-X-5---X-X-5-3~--3-3---3-3-3---3-3-3---3-3-3----| 

e|-------------------------------------------------------------------| 
B|-------------------------------------------------------------------| 
G|-------------------------------------------------------------------| 
D|--X-X-7---X-X-7---X-X-7---X-X-7-5~--5-5---5-5-5---5-5-5---5-5-5----| 
A|--X-X-7---X-X-7---X-X-7---X-X-7-5~--5-5---5-5-5---5-5-5---5-5-5----| 
E|--X-X-5---X-X-5---X-X-5---X-X-5-3~--3-3---3-3-3---3-3-3---3-3-3----| 

e|-------------------------------------------------------------------| 
B|-------------------------------------------------------------------| 
G|-------------------------------------------------------------------| 
D|--X-X-7---X-X-7---X-X-7---X-X-7-5~--5-5---5-5-5---5-5-5---5-5-5----| 
A|--X-X-7---X-X-7---X-X-7---X-X-7-5~--5-5---5-5-5---5-5-5---5-5-5----| 
E|--X-X-5---X-X-5---X-X-5---X-X-5-3~--3-3---3-3-3---3-3-3---3-3-3----| 

e|------------------------------------------------------| 
B|------------------------------------------------------| 
G|------------------------------------------------------| 
D|--X-X-7---X-X-7---X-X-7---X-X-7---5----4----5----7----| 
A|--X-X-7---X-X-7---X-X-7---X-X-7---5----5----5----7----| 
E|--X-X-5---X-X-5---X-X-5---X-X-5---3----2----3----5----| 



Chorus 

  You can figure out the strumming: 
e|-----------------------| 
B|---3-------------------| 
G|---2----2----4---------| 
D|---0----2----4----5----| 
A|--(0)---0----2----5----| 
E|------------------3----| 



REPTEAT INTRO 



VERSE 

  One guitar will repeat the palm muted figure from the first verse  
  while another guitar plays these harmonics: 
e|---------------------------------------------------------------------| 
B|--<7>-<7>-<7>-<7>---------------------------------<7>-<7>-<7>-<7>----| 
G|----------------------------------<7>-<7>-<7>-<7>--------------------| 
D|------------------<7>-<7>-<7>-<7>------------------------------------| 
A|---------------------------------------------------------------------| 
E|---------------------------------------------------------------------| 

e|---------------------------------------------------------------------| 
B|----------------------------------<7>-<7>-<7>-<7>--------------------| 
G|--<7>-<7>-<7>-<7>-<7>-<7>-<7>-<7>-----------------<7>-<7>------------| 
D|----------------------------------------------------------<7>-<7>----| 
A|---------------------------------------------------------------------| 
E|---------------------------------------------------------------------| 

e|---------------------------------------------------------------------| 
B|--<7>-<7>-<7>-<7>---------------------------------<7>-<7>-<7>-<7>----| 
G|----------------------------------<7>-<7>-<7>-<7>--------------------| 
D|------------------<7>-<7>-<7>-<7>------------------------------------| 
A|---------------------------------------------------------------------| 
E|---------------------------------------------------------------------| 

e|---------------------------------------------------------------------| 
B|----------------------------------<7>-<7>-<7>-<7>--------------------| 
G|--<7>-<7>-<7>-<7>-<7>-<7>-<7>-<7>-----------------<7>-<7>------------| 
D|----------------------------------------------------------<7>-<7>----| 
A|---------------------------------------------------------------------| 
E|---------------------------------------------------------------------| 

  And a third guitar comes in after resting 8 measures playing this (let ring): 
e|------------------------------------------0---------0---------0---------0---------| 
B|--7---------7---------7---------7-------------------------------------------------| 
G|-------7---------7---------7---------7---------7---------7---------7---------7----| 
D|----------------------------------------------------------------------------------| 
A|----------------------------------------------------------------------------------| 
E|----------------------------------------------------------------------------------| 

e|----------------------------------------------------------------------------------| 
B|--7---------7---------7---------7---------8---------8---------8---------8---------| 
G|-------7---------7---------7---------7---------7---------7---------7---------7----| 
D|----------------------------------------------------------------------------------| 
A|----------------------------------------------------------------------------------| 
E|----------------------------------------------------------------------------------| 



REPEAT Pre-Chorus 
REPEAT Chorus 



BRIDGE 

e|-------------------------------------------------------------------------------------------------| 
B|-------------------3~~~--------------------3-------------------------3~~~------------------------| 
G|-------------------0~~~--------------------0----2--------------------0~~~------------------------| 
D|-------------------0~~~--------------------0----2--------------------0~~~------------------------| 
A|---5-5-5-5---------X~~~----5-5-5-5---------X----0----5-5-5-5---------X~~~----0----0----5----4----| 
E|---3-3-3-3----3----3~~~----3-3-3-3----3----3---------3-3-3-3----3----3~~~------------------------| 

e|-------------------------------------------------------------------------------------------------| 
B|-------------------3~~~--------------------3-------------------------3~~~------------------------| 
G|-------------------0~~~--------------------0----2--------------------0~~~------------------------| 
D|-------------------0~~~--------------------0----2--------------------0~~~----5----4----5----7----| 
A|---5-5-5-5---------X~~~----5-5-5-5---------X----0----5-5-5-5---------X~~~----5----5----5----7----| 
E|---3-3-3-3----3----3~~~----3-3-3-3----3----3---------3-3-3-3----3----3~~~----3----2----3----5----| 



Chorus 

  (Let Ring) 
e|----------------------0-----------------------------0-------------------0---------| 
B|------------7-------------------7------------------------7----8----7--------------| 
G|-------7---------7---------7---------7---------7-----------------------------7----| 
D|--0-------------------------------------------------------------------------------| 
A|------------------------------------------0---------------------------------------| 
E|----------------------------------------------------------------------------------| 

e|----------------------0---------------------------------------0-------------------| 
B|------------7---------------------------------------7-------------------7---------| 
G|-------7---------7--------------7--------------7---------7------------------------| 
D|------------------------------------------5---------------------------------------| 
A|----------------------------------------------------------------------------------| 
E|--7-------------------------------------------------------------------------------| 

e|----------------------0-----------------------------0-------------------0---------| 
B|------------7-------------------7------------------------7----8----7--------------| 
G|-------7---------7---------7---------7---------7-----------------------------7----| 
D|--0-------------------------------------------------------------------------------| 
A|------------------------------------------0---------------------------------------| 
E|----------------------------------------------------------------------------------| 

e|----------------------0---------------------------------------| 
B|------------7-------------------------------------------------| 
G|-------7---------7--------------7-----------------------------| 
D|------------------------------------------5----4----5----7----| 
A|------------------------------------------5----5----5----7----| 
E|--7---------------------------------------2----2----3----5----| 



OUTRO 

Repeat Intro twice then end with this: 

  Guitar 1 
e|------------------------------------------| 
B|------------------------------------------| 
G|--12----11----12----14----15-15-15-15\----| 
D|--12----12----12----14----14-14-14-14\----| 
A|------------------------------------------| 
E|------------------------------------------| 

  Guitar 2 
e|----------------------------------| 
B|----------------------------------| 
G|----------------------7-7-7-7\----| 
D|--5----4----5----7----7-7-7-7\----| 
A|--5----5----5----7----5-5-5-5\----| 
E|--3----2----3----5----------------| 





************************************ 

| \   slide down 
| h   hammer-on 
| ~   hold note 
|  harmonic 
| X   mute note 
| (n) ghost note 

************************************ 
  

top 5 | simple plan
top
Outras músicas do artista letras do(a) Simple Plan
Top cifras »Top artistas »
Petaxxon Comunicação Online
Cifras.com.br - Melhor e mais completo site de cifras e tablaturas do Brasil
Mais de 1 milhão de acordes de músicas cadastradas desde 2003
As informações contidas no nosso site são colaborações de seus usuários e podem conter erros, sendo assim, não nos responsabilizamos sobre nenhuma destas.
close
menos
mais
close
Cor dos acordes:

Cor da letra:

 

save
close
close
 
redimensionar