Cifras e Tablaturas
Simple Plan

Simple Plan

Singing In The Rain

Cifras Cancelar Versão de Impressão
cifras

Simple Plan - Singing In The Rain

fixar na tela  
Exibindo: vídeo-aula ver clipes redimensionar
  
Tuning: standard 

Opening, Verses, Chorus, basically most parts of the song except the "Storm clouds are circling around" 
pre Chorus. Basic progression is E - A - C#m - B. 

e|--7--7--x--x--7----9--9--x--x--9----9--9--x--x--9----7--7--x--x--7----| 
B|--9--9--x--x--9----10-10-x--x--10---9--9--x--x--9----7--7--X--x--7----| 
G|--9--9--x--x--9----9--9--x--x--9----9--9--x--x--9----8--8--X--x--8----| 
D|--9--9--x--x--9----7--7--x--x--7----11-11-x--x--11---9--9--X--x--9----| 
A|----------------------------------------------------------------------| 
E|----------------------------------------------------------------------| 

Pre-Chorus 

e|--9--9--------9----7--7--------7----9--9--------9----7--7--------7----| 
B|--10-10-------10---7--7--------7----10-10-------10---7--7--------7----| 
G|--9--9--------9----8--8--------8----9--9--------9----8--8--------8----| 
D|--7--7--------9----9--9--------9----7--7--------7----9--9--------9----| 
A|----------------------------------------------------------------------| 
E|----------------------------------------------------------------------| 
 
  

cifra enviadasem correções
enviado porenviada por:alyslima
top 5 | simple plan
top
Outras músicas do artista letras do(a) Simple Plan
Top cifras »Top artistas »
Petaxxon Comunicação Online
Cifras.com.br - Melhor e mais completo site de cifras e tablaturas do Brasil
Mais de 1 milhão de acordes de músicas cadastradas desde 2003
As informações contidas no nosso site são colaborações de seus usuários e podem conter erros, sendo assim, não nos responsabilizamos sobre nenhuma destas.
close
menos
mais
close
Cor dos acordes:

Cor da letra:

 

save
close
close
 
redimensionar