Cifras e Tablaturas
Sixx:A.M.

Sixx:A.M.

Wolf At Your Door

Cifras Cancelar Versão de Impressão
cifras

Sixx:A.M. - Wolf At Your Door

fixar na tela  
Exibindo: vídeo-aula ver clipes redimensionar

Tom:

  
Intro 
e|------------------------------------------------------------------------------------------------------| 
B|------------------------------------------------------------------------------------------------------| 
G|------------------------------------------------------------------------------------------------------| 
D|\2-2--8-7-5-7--2-2--x-x----2-2--8-7-5-7--3--5------2-2--8-7-5-7--2-2--x-x----2-2--8-7-5-7--3--5-------| 
A|\2-2--8-7-5-7--2-2--x-x----2-2--8-7-5-7--3--5------2-2--8-7-5-7--2-2--x-x----2-2--8-7-5-7--3--5-------| 
D|\2-2--8-7-5-7--2-2--x-x----2-2--8-7-5-7--3--5------2-2--8-7-5-7--2-2--x-x----2-2--8-7-5-7--3--5-------| 


Verse Palm Mute the entire thing 
e|------------------------------------------------------------------------------| 
B|------------------------------------------------------------------------------| 
G|------------------------------------------------------------------------------| 
D|-----2-----2--------2-----2----------2------2-------5-----------3-------------| x4 
A|---2---2----------2---2------------2---2----------5---5-------3---3-----------| 
D|-2-------2------2-------2--------2-------2------5-----------3-----------------| 

Mid-Verse 
e|---------------------------------------------------------------------------------------------| 
B|---------------------------------------------------------------------------------------------| 
G|---------------------------------------------------------------------------------------------| 
D|--2--2--2--2--2--2--2-----------------2-2--8-7-5-7--2-2--x-x----2-2--8-7-5-7--3--5-----------| 
A|--2--2--2--2--2--2--2-----------------2-2--8-7-5-7--2-2--x-x----2-2--8-7-5-7--3--5-----------| 
D|--2--2--2--2--2--2--2-----------------2-2--8-7-5-7--2-2--x-x----2-2--8-7-5-7--3--5-----------| 

Verse Palm Mute the entire thing 
e|------------------------------------------------------------------------------| 
B|------------------------------------------------------------------------------| 
G|------------------------------------------------------------------------------| 
D|-----2-----2--------2-----2----------2------2-------5-----------3-------------| x4 
A|---2---2----------2---2------------2---2----------5---5-------3---3-----------| 
D|-2-------2------2-------2--------2-------2------5-----------3-----------------| 


Chorus 1 
e|--------------------------|  |-----------------------------------------------------------------------| 
B|--------------------------|  |-----------------------------------------------------------------------| 
G|--------------------------|  |-----------------------------------------------------------------------| 
D|--2--2--2--2--2--2--2--2--|  |---4-4-4-4-4-4---6-6-6-6-6-6---8-8-8-8-8-8---6-6-6-6-6-6---------------| x2 
A|--2--2--2--2--2--2--2--2--|  |---4-4-4-4-4-4---6-6-6-6-6-6---8-8-8-8-8-8---6-6-6-6-6-6---------------| 
D|--2--2--2--2--2--2--2--2--|  |---4-4-4-4-4-4---6-6-6-6-6-6---8-8-8-8-8-8---6-6-6-6-6-6---------------| 


After Chorus 1 
e|------------------------------------------------------------------------------------------------------| 
B|------------------------------------------------------------------------------------------------------| 
G|------------------------------------------------------------------------------------------------------| 
D|-2-2--8-7-5-7--2-2--x-x----2-2--8-7-5-7--3--5------2-2--8-7-5-7--2-2--x-x----2-2--8-7-5-7--3--5-------| 
A|-2-2--8-7-5-7--2-2--x-x----2-2--8-7-5-7--3--5------2-2--8-7-5-7--2-2--x-x----2-2--8-7-5-7--3--5-------| 
D|-2-2--8-7-5-7--2-2--x-x----2-2--8-7-5-7--3--5------2-2--8-7-5-7--2-2--x-x----2-2--8-7-5-7--3--5-------| 

Verse Palm Mute the entire thing 
e|------------------------------------------------------------------------------| 
B|------------------------------------------------------------------------------| 
G|------------------------------------------------------------------------------| 
D|-----2-----2--------2-----2----------2------2-------5-----------3-------------| x4 
A|---2---2----------2---2------------2---2----------5---5-------3---3-----------| 
D|-2-------2------2-------2--------2-------2------5-----------3-----------------| 

Chorus 2 
e|--------------------------|  |-----------------------------------------------------------------------| 
B|--------------------------|  |-----------------------------------------------------------------------| 
G|--------------------------|  |-----------------------------------------------------------------------| 
D|--2--2--2--2--2--2--2--2--|  |---4-4-4-4-4-4---6-6-6-6-6-6---8-8-8-8-8-8---6-6-6-6-6-6---------------| x2 
A|--2--2--2--2--2--2--2--2--|  |---4-4-4-4-4-4---6-6-6-6-6-6---8-8-8-8-8-8---6-6-6-6-6-6---------------| 
D|--2--2--2--2--2--2--2--2--|  |---4-4-4-4-4-4---6-6-6-6-6-6---8-8-8-8-8-8---6-6-6-6-6-6---------------| 


Bridge/Solo 
Palm Mute this first part 
e|---------------------------------------------------------------------------------------------------------| 
B|---------------------------------------------------------------------------------------------------------| 
G|---------------------------------------------------------------------------------------------------------| 
D|-7-0-0-0-10-0-0-0-7-5-6-7--7-0-0-0-10-0-0-0-7-5-6-7--7-0-0-0-10-0-0-0-7-5-6-7--7-0-0-0-10-0-0-0-7--------| 
A|---------------------------------------------------------------------------------------------------------| 
D|---------------------------------------------------------------------------------------------------------| 

e|--------------------17-------------------|----------------------------------------------------------------| 
B|-15b----15--17--18-----20-18-17b---------|-----------15-17-20-18-17-15b--12-------------------------------| 
G|-----14--------------------------17--14b-|--17----17-----------------------12b-------15b--12-14b--10------| 
D|-----------------------------------------|-----17--------------------------------8b------------------10---|  
A|-----------------------------------------|----------------------------------------------------------------| 
D|-----------------------------------------|----------------------------------------------------------------| 

e|-------------------------------------------------------------------------------------------------------| 
B|-------------------------------------------------------------------------------------------------------| 
G|--------------------------------------------------------------------------14b--------------------------| 
D|-11-11-11-11-12-12-12-12-14-14-14-14-12-12-12-12-11-11-11-11-12-12-12-12-------------------------------| 
A|-------------------------------------------------------------------------------------------------------| 
D|-------------------------------------------------------------------------------------------------------| 

Chorus 3 
e|-------------------------------------------------------------------------------| 
B|-------------------------------------------------------------------------------| 
G|-------------------------------------------------------------------------------| 
D|---4-4-4-4-4-4---6-6-6-6-6-6---8-8-8-8-8-8---6-6-6-6-6-6-----------------------| x4 
A|---4-4-4-4-4-4---6-6-6-6-6-6---8-8-8-8-8-8---6-6-6-6-6-6-----------------------| 
D|---4-4-4-4-4-4---6-6-6-6-6-6---8-8-8-8-8-8---6-6-6-6-6-6-----------------------| 

Outro 
e|------------------------------------------------------------------------------------------------------| 
B|------------------------------------------------------------------------------------------------------| 
G|------------------------------------------------------------------------------------------------------| 
D|-2-2--8-7-5-7--2-2--x-x----2-2--8-7-5-7--3--5------2-2--8-7-5-7--2-2--x-x----2-2--8-7-5-7--3--5-------| 
A|-2-2--8-7-5-7--2-2--x-x----2-2--8-7-5-7--3--5------2-2--8-7-5-7--2-2--x-x----2-2--8-7-5-7--3--5-------| 
D|-2-2--8-7-5-7--2-2--x-x----2-2--8-7-5-7--3--5------2-2--8-7-5-7--2-2--x-x----2-2--8-7-5-7--3--5-------| 
  

top 5 | sixx:a.m.
top rock'n roll
Outras músicas do artista letras do(a) Sixx:A.M.
Top cifras »Top artistas »
Petaxxon Comunicação Online
Cifras.com.br - Melhor e mais completo site de cifras e tablaturas do Brasil
Mais de 1 milhão de acordes de músicas cadastradas desde 2003
As informações contidas no nosso site são colaborações de seus usuários e podem conter erros, sendo assim, não nos responsabilizamos sobre nenhuma destas.
close
menos
mais
close
Cor dos acordes:

Cor da letra:

 

save
close
close
 
redimensionar