Cifras e Tablaturas
Skank

Skank

Ali

Ano: 2000
Album : MTV Ao Vivo: Ouro Preto

Cifras Cancelar Versão de Impressão
cifras

Skank - Ali

fixar na tela  
Exibindo: vídeo-aula ver clipes redimensionar

Tom:

E

ver outros tons
  E|--------------------------------------------------------------------------------------------------------- 
B|--------------------------------------------------------------------------------------------------------- 
G|------------------------------------------------------------------------------------------4-----6-----4-- 
D|-------------2----4--------2-------------------------------------2----4------4----6--------------------6- 
A|---2----4------------------------4----2-2----4----------2----4------------------------------------------- 
E|--------------------------------------------------------------------------------------------------------- 



E|---------------------------------------------------------------------------------------------------------
B|--------------------------------------------------------------------------------------------------------- 
G|--------------------------------------------------------------------------------------------------------- 
D|------------2----4--------2-------------------------------------2----4---2------------------------------- 
A|--2----4------------------------4----2-2---4----------2----4-----------------4-----2-----4--------------- 
E|--------------------------------------------------------------------------------------------------------- 
  

top 5 | skank
top rock'n roll
Outras músicas do artista letras do(a) Skank
Top cifras »Top artistas »
Petaxxon Comunicação Online
Cifras.com.br - Melhor e mais completo site de cifras e tablaturas do Brasil
Mais de 1 milhão de acordes de músicas cadastradas desde 2003
As informações contidas no nosso site são colaborações de seus usuários e podem conter erros, sendo assim, não nos responsabilizamos sobre nenhuma destas.
close
menos
mais
close
Cor dos acordes:

Cor da letra:

 

save
close
close
 
redimensionar