Cifras e Tablaturas
Skating Polly

Skating Polly

Pretective Boy

Cifras Cancelar Versão de Impressão
cifras

Skating Polly - Pretective Boy

fixar na tela  
Exibindo: vídeo-aula ver clipes redimensionar

Tom:

  
Verse 
("Oh boy, etc…") 
E|-------------------------------------| 
B|-------------------------------------| 
G|-------------------------------------| 
D|-------------------------------------| 
A|-------------------------------------| 
E|-12-12-12-12-9-9-9-9-7-7-7-7-5-5-5-5-| x5 

Chorus 
("And I know…," "I've got a castle…" and "And if we fail together…") Verse guitar continues to loop 
E|-------------------------------------------------------------------------| 
B|-------------------------------------------------------------------------| 
G|-------------------------------------------------------------------------| 
D|-9-9-11---9-11---9-11---9----9-------9-9-11---9-11---9-11---9----9-------| 
A|--------------------------11----------------------------------11---------| 
E|-------------------------------------------------------------------------| x8 

Bridge 
("At the sparks…") 
E|-------------------------------------------------------------------------| 
B|-------------------------------------------------------------------------| 
G|-------------------------------------------------------------------------| 
D|-------------------------------------------------------------------------| 
A|-------------------------------------------------------------------------| 
E|-0-0-0-0-12-12-12-12-7-7-7-5-5-5-5-5-0-0-0-0-12-12-12-12-7-7-7-9-9-9-9-9-| 

E|-------------------------------------------------------------------------| 
B|-------------------------------------------------------------------------| 
G|-------------------------------------------------------------------------| 
D|-------------------------------------------------------------------------| 
A|-------------------------------------------------------------------------| 
E|-0-0-0-0-12-12-12-12-7-7-7-5-5-5-5-5-5-5-5-5-5-5-5-5-5-5-4-4-2-2-4-4-2-2-| 

"We're like that movie…" 
E|---------------------------------| 
B|---------------------------------| 
G|---------------------------------| 
D|---------------------------------| 
A|---------------------------------| 
E|-2-2-2-2-2-2-2-2-7-7-7-7-7-7-7-7-| 

Verse 
("Oh boy, etc…") 
E|-------------------------------------| 
B|-------------------------------------| 
G|-------------------------------------| 
D|-------------------------------------| 
A|-------------------------------------| 
E|-12-12-12-12-9-9-9-9-7-7-7-7-5-5-5-5-| x7 

Chorus 
("And I know…," "I've got a castle…" and "And if we fail together…") Verse guitar continues to loop 
E|-------------------------------------------------------------------------| 
B|-------------------------------------------------------------------------| 
G|-------------------------------------------------------------------------| 
D|-9-9-11---9-11---9-11---9----9-------9-9-11---9-11---9-11---9----9-------| 
A|--------------------------11----------------------------------11---------| 
E|-------------------------------------------------------------------------| x8 

Bridge 
("At the sparks…") 
E|-------------------------------------------------------------------------| 
B|-------------------------------------------------------------------------| 
G|-------------------------------------------------------------------------| 
D|-------------------------------------------------------------------------| 
A|-------------------------------------------------------------------------| 
E|-0-0-0-0-12-12-12-12-7-7-7-5-5-5-5-5-0-0-0-0-12-12-12-12-7-7-7-9-9-9-9-9-| 

E|-------------------------------------------------------------------------| 
B|-------------------------------------------------------------------------| 
G|-------------------------------------------------------------------------| 
D|-------------------------------------------------------------------------| 
A|-------------------------------------------------------------------------| 
E|-0-0-0-0-12-12-12-12-7-7-7-5-5-5-5-5-5-5-5-5-5-5-5-5-5-5-4-4-2-2-4-4-2-2-| 

E|-------------------------------------------------------------------------| 
B|-------------------------------------------------------------------------| 
G|-------------------------------------------------------------------------| 
D|-------------------------------------------------------------------------| 
A|-------------------------------------------------------------------------| 
E|-0-0-0-0-12-12-12-12-7-7-7-5-5-5-5-5-0-0-0-0-12-12-12-12-7-7-7-9-9-9-9-9-| 

E|-------------------------------------------------------------------------| 
B|-------------------------------------------------------------------------| 
G|-------------------------------------------------------------------------| 
D|-------------------------------------------------------------------------| 
A|-------------------------------------------------------------------------| 
E|-0-0-0-0-12-12-12-12-7-7-7-5-5-5-5-5-5-5-5-5-5-5-5-5-5-5-4-4-2-2-4-4-2-2-| 

"We're like that movie…" 
E|---------------------------------------------------------| 
B|---------------------------------------------------------| 
G|---------------------------------------------------------| 
D|---------------------------------------------------------| 
A|---------------------------------------------------------| 
E|-2-2-2-2-2-2-2-2-7-7-7-7-7-7-7-7-12-12-12-12-12-12-12-12-| 

Chorus 
("And I know…," "I've got a castle…" and "And if we fail together…") Verse guitar continues to loop 
E|-------------------------------------------------------------------------| 
B|-------------------------------------------------------------------------| 
G|-------------------------------------------------------------------------| 
D|-9-9-11---9-11---9-11---9----9-------9-9-11---9-11---9-11---9----9-------| 
A|--------------------------11----------------------------------11---------| 
E|-------------------------------------------------------------------------| x8 
  

top 5 | skating polly
top rock'n roll
Outras músicas do artista letras do(a) Skating Polly
Top cifras »Top artistas »
Petaxxon Comunicação Online
Cifras.com.br - Melhor e mais completo site de cifras e tablaturas do Brasil
Mais de 1 milhão de acordes de músicas cadastradas desde 2003
As informações contidas no nosso site são colaborações de seus usuários e podem conter erros, sendo assim, não nos responsabilizamos sobre nenhuma destas.
close
menos
mais
close
Cor dos acordes:

Cor da letra:

 

save
close
close
 
redimensionar