Cifras e Tablaturas
Skillet

Skillet

Gasoline

Cifras Cancelar Versão de Impressão
cifras

Skillet - Gasoline

fixar na tela  
Exibindo: vídeo-aula ver clipes redimensionar

Tom:

  
Intro 

First bass, then... 

Distortion 
e|----------------------------------------------| 
B|-------8----------------------8---------------| 
G|-------7----------------------7---------------| 
D|---2---6---5-5-6-7-8------2---6---5-5-6-7-8---| x2 
A|---2---7------------------2---7---------------| 
E|---0-------3-3-4-5-6------0-------3-3-4-5-6---| 


Verse 

Clean 
e|----------------------------------------------| 
B|-------8----------------------8---------------| 
G|-------7----------------------7---------------| 
D|---2---6---5-5-6-7-8------2---6---5-5-6-7-8---| x2 
A|---2---7------------------2---7---------------| 
E|---0-------3-3-4-5-6------0-------3-3-4-5-6---| 
                                                           x2 
e|-----------------------|--------------------------| 
B|-------8---------------|------8---8-8-8-8-8-8-8-8-| 
G|-------7---------------|------7---7-7-7-7-7-7-7-7-| 
D|---2---6---5-5-6-7-8---|--2---6---6-6-6-6-6-6-6-6-|  
A|---2---7---------------|--2---7---7-7-7-7-7-7-7-7-| 
E|---0-------3-3-4-5-6---|--0-----------------------| 


Interlude 

Distortion 
e|----------------------------------------------| 
B|-------8----------------------8---------------| 
G|-------7----------------------7---------------| 
D|---2---6---5-5-6-7-8------2---6---5-5-6-7-8---| x2 
A|---2---7------------------2---7---------------| 
E|---0-------3-3-4-5-6------0-------3-3-4-5-6---| 


Verse 

Clean 
e|----------------------------------------------| 
B|-------8----------------------8---------------| 
G|-------7----------------------7---------------| 
D|---2---6---5-5-6-7-8------2---6---5-5-6-7-8---| x2 
A|---2---7------------------2---7---------------| 
E|---0-------3-3-4-5-6------0-------3-3-4-5-6---| 
                                                           x2 
e|-----------------------|--------------------------| 
B|-------8---------------|------8---8-8-8-8-8-8-8-8-| 
G|-------7---------------|------7---7-7-7-7-7-7-7-7-| 
D|---2---6---5-5-6-7-8---|--2---6---6-6-6-6-6-6-6-6-|  
A|---2---7---------------|--2---7---7-7-7-7-7-7-7-7-| 
E|---0-------3-3-4-5-6---|--0-----------------------| 



Pre-Chorus 

Distortion 
e|---------------------| 
B|---------------------| 
G|---------------------| 
D|---4---5-----4---3---| 
A|---4---5-----4---3---| 
E|---2---3-----2---1---| 

Chorus 

e|---------------------------------------------------| 
B|---------------------------------------------------| 
G|--------------5-------5----------------------------| 
D|---2--2---x-x-5---x-x-5-----2--2---x-x-5---x-x-5---| 
A|---2--2---x-x-3---x-x-3-----2--2---x-x-5---x-x-5---| 
E|---0--0---x-x-----x-x-------0--0---x-x-3---x-x-3---| 
                                                          x2 
e|----------------------------------------------| 
B|----------------------------------------------| 
G|------------6---5-----------------------------| 
D|---2---2----6---5---2---2-2---x-x-5---x-x-5---| 
A|---2---2----4---3---2---2-2---x-x-5---x-x-5---| 
E|---0---0------------0---0-0---x-x-3---x-x-3---| 

Post-Chorus 

e|----------------------------------------------| 
B|-------8----------------------8---------------| 
G|-------7----------------------7---------------| 
D|---2---6---5-5-6-7-8------2---6---5-5-6-7-8---| 
A|---2---7------------------2---7---------------| 
E|---0-------3-3-4-5-6------0-------3-3-4-5-6---| 

Verse 

Clean 
e|----------------------------------------------| 
B|-------8----------------------8---------------| 
G|-------7----------------------7---------------| 
D|---2---6---5-5-6-7-8------2---6---5-5-6-7-8---| x2 
A|---2---7------------------2---7---------------| 
E|---0-------3-3-4-5-6------0-------3-3-4-5-6---| 
                                                           x2 
e|-----------------------|--------------------------| 
B|-------8---------------|------8---8-8-8-8-8-8-8-8-| 
G|-------7---------------|------7---7-7-7-7-7-7-7-7-| 
D|---2---6---5-5-6-7-8---|--2---6---6-6-6-6-6-6-6-6-|  
A|---2---7---------------|--2---7---7-7-7-7-7-7-7-7-| 
E|---0-------3-3-4-5-6---|--0-----------------------| 

Pre-Chorus 

Distortion 
e|---------------------| 
B|---------------------| 
G|---------------------| 
D|---4---5-----4---3---| 
A|---4---5-----4---3---| 
E|---2---3-----2---1---| 

Chorus 

e|---------------------------------------------------| 
B|---------------------------------------------------| 
G|--------------5-------5----------------------------| 
D|---2--2---x-x-5---x-x-5-----2--2---x-x-5---x-x-5---| 
A|---2--2---x-x-3---x-x-3-----2--2---x-x-5---x-x-5---| 
E|---0--0---x-x-----x-x-------0--0---x-x-3---x-x-3---| 
                                                          x2 
e|----------------------------------------------| 
B|----------------------------------------------| 
G|------------6---5-----------------------------| 
D|---2---2----6---5---2---2-2---x-x-5---x-x-5---| 
A|---2---2----4---3---2---2-2---x-x-5---x-x-5---| 
E|---0---0------------0---0-0---x-x-3---x-x-3---| 


Solo 

Use wah 
e|----------------------|----------------------------| 
B|---12b--------12------|-12b--14~--13~---12b--------| 
G|---12b--12~---12--14~-|-12b-------------12b--14~---| 
D|----------------------|----------------------------| x2 
A|----------------------|----------------------------| 
E|----------------------|----------------------------| 


Rhythm: 
e|---------------------------------------------------| 
B|---------------------------------------------------| 
G|--------------5-------5----------------------------| 
D|---2--2---x-x-5---x-x-5-----2--2---x-x-5---x-x-5---| 
A|---2--2---x-x-3---x-x-3-----2--2---x-x-5---x-x-5---| 
E|---0--0---x-x-----x-x-------0--0---x-x-3---x-x-3---| 
                                                          x2 
e|----------------------------------------------| 
B|----------------------------------------------| 
G|------------6---5-----------------------------| 
D|---2---2----6---5---2---2-2---x-x-5---x-x-5---| 
A|---2---2----4---3---2---2-2---x-x-5---x-x-5---| 
E|---0---0------------0---0-0---x-x-3---x-x-3---| 


''Soak my heart in gasoline...'' 

Distortion 
e|----------------------------------------------| 
B|-------8----------------------8---------------| 
G|-------7----------------------7---------------| 
D|---2---6---5-5-6-7-8------2---6---5-5-6-7-8---| x4 
A|---2---7------------------2---7---------------| 
E|---0-------3-3-4-5-6------0-------3-3-4-5-6---| 


e|---------------------| 
B|---------------------| 
G|---------------------| 
D|---4---5-----4---3---| 
A|---4---5-----4---3---| 
E|---2---3-----2---1---| 

Chorus 

e|---------------------------------------------------| 
B|---------------------------------------------------| 
G|--------------5-------5----------------------------| 
D|---2--2---x-x-5---x-x-5-----2--2---x-x-5---x-x-5---| 
A|---2--2---x-x-3---x-x-3-----2--2---x-x-5---x-x-5---| 
E|---0--0---x-x-----x-x-------0--0---x-x-3---x-x-3---| 
                                                          x2 
e|----------------------------------------------| 
B|----------------------------------------------| 
G|------------6---5-----------------------------| 
D|---2---2----6---5---2---2-2---x-x-5---x-x-5---| 
A|---2---2----4---3---2---2-2---x-x-5---x-x-5---| 
E|---0---0------------0---0-0---x-x-3---x-x-3---| 


Outro 

e|---------------------------------------------------| 
B|---------------------------------------------------| 
G|--------------5-------5----------------------------| 
D|---2--2---x-x-5---x-x-5-----2--2---x-x-5---x-x-5---| 
A|---2--2---x-x-3---x-x-3-----2--2---x-x-5---x-x-5---| 
E|---0--0---x-x-----x-x-------0--0---x-x-3---x-x-3---| 
                                                          
e|----------------------------------------------| 
B|----------------------------------------------| 
G|------------6---5-----------------------------| 
D|---2---2----6---5---2---2-2---x-x-5---x-x-5---| 
A|---2---2----4---3---2---2-2---x-x-5---x-x-5---| 
E|---0---0------------0---0-0---x-x-3---x-x-3---| 

e|---------------------------------------------------| 
B|---------------------------------------------------| 
G|--------------5-------5----------------------------| 
D|---2--2---x-x-5---x-x-5-----2--2---x-x-5---x-x-5---| 
A|---2--2---x-x-3---x-x-3-----2--2---x-x-5---x-x-5---| 
E|---0--0---x-x-----x-x-------0--0---x-x-3---x-x-3---| 
                                                          
e|----------------------------------------------| 
B|----------------------------------------------| 
G|------------6---5-----------------------------| 
D|---2---2----6---5---2---2-2---x-x-5-----------| 
A|---2---2----4---3---2---2-2---x-x-5-----------| 
E|---0---0------------0---0-0---x-x-3-----------| 


************************************ 

| x   Dead note 
| b   Bend 
| ~   Vibrato 

************************************ 
  

top 5 | skillet
top rock alternativo
Outras músicas do artista letras do(a) Skillet
Top cifras »Top artistas »
Petaxxon Comunicação Online
Cifras.com.br - Melhor e mais completo site de cifras e tablaturas do Brasil
Mais de 1 milhão de acordes de músicas cadastradas desde 2003
As informações contidas no nosso site são colaborações de seus usuários e podem conter erros, sendo assim, não nos responsabilizamos sobre nenhuma destas.
close
menos
mais
close
Cor dos acordes:

Cor da letra:

 

save
close
close
 
redimensionar