Cifras e Tablaturas
Skillet

Skillet

Looking For Angels

Ano: 2006
Album : Comatose

Cifras Cancelar Versão de Impressão
cifras

Skillet - Looking For Angels

fixar na tela  
Exibindo: vídeo-aula ver clipes redimensionar

Tom:

  Intro 

e|-----------------------|--------------------------| 
B|-----------------------|--------------------------| 
G|-----------------------|---3-3-3-3---------3-3----| 
D|---0-0-0-0--x-x-0--0---|---3-3-3-3--x-x-x--3-3----| 
A|---0-0-0-0--x-x-0--0---|---1-1-1-1--x-x-x--1-1----| 
D|---0-0-0-0--x-x-0--0---|------------x-x-x---------| 

e|-----------------------|--------------------------| 
B|-----------------------|--------------------------| 
G|-----------------------|--------------------------| 
D|---3-3-3-3--x-x-3--3---|---5-5-5-5--x-x-5-5-5-----| 
A|---3-3-3-3--x-x-3--3---|---5-5-5-5--x-x-5-5-5-----| 
D|---3-3-3-3--x-x-3--3---|---5-5-5-5--x-x-5-5-5-----| 


Verse 

All piano (you can improvise something if you want) 


Chorus 

N.H .  .  .  . 
e|-12-12-12-12-| 
B|-------------| 
G|-------------| 
D|-------------| 
A|-------------| 
D|-------------| 


e|-----------------------|--------------------------| 
B|-----------------------|--------------------------| 
G|-----------------------|---3-3-3-3---------3-3----| 
D|---0-0-0-0--x-x-0--0---|---3-3-3-3--x-x-x--3-3----| 
A|---0-0-0-0--x-x-0--0---|---1-1-1-1--x-x-x--1-1----| 
D|---0-0-0-0--x-x-0--0---|------------x-x-x---------| 

e|-----------------------|--------------------------| 
B|-----------------------|--------------------------| 
G|-----------------------|---5-5-5-5------5-5-5-----| 
D|---3-3-3-3--x-x-3--3---|---5-5-5-5--x-x-5-5-5-----| 
A|---3-3-3-3--x-x-3--3---|---3-3-3-3--x-x-3-3-3-----| 
D|---3-3-3-3--x-x-3--3---|------------x-x-----------| 


e|-----------------------|--------------------------| 
B|-----------------------|--------------------------| 
G|-----------------------|---3-3-3-3---------3-3----| 
D|---0-0-0-0--x-x-0--0---|---3-3-3-3--x-x-x--3-3----| 
A|---0-0-0-0--x-x-0--0---|---1-1-1-1--x-x-x--1-1----| 
D|---0-0-0-0--x-x-0--0---|------------x-x-x---------| 

e|-----------------------|--------------------------| 
B|-----------------------|--------------------------| 
G|-----------------------|--------------------------| 
D|---3-3-3-3--x-x-3--3---|---7-7-7-7--x-x-7-7-7-----| 
A|---3-3-3-3--x-x-3--3---|---5-5-5-5--x-x-5-5-5-----| 
D|---3-3-3-3--x-x-3--3---|---5-5-5-5--x-x-5-5-5-----| 


Verse 

All piano (you can improvise something if you want) 


Chorus 

N.H .  .  .  . 
e|-12-12-12-12-| 
B|-------------| 
G|-------------| 
D|-------------| 
A|-------------| 
D|-------------| 


e|-----------------------|--------------------------| 
B|-----------------------|--------------------------| 
G|-----------------------|---3-3-3-3---------3-3----| 
D|---0-0-0-0--x-x-0--0---|---3-3-3-3--x-x-x--3-3----| 
A|---0-0-0-0--x-x-0--0---|---1-1-1-1--x-x-x--1-1----| 
D|---0-0-0-0--x-x-0--0---|------------x-x-x---------| 

e|-----------------------|--------------------------| 
B|-----------------------|--------------------------| 
G|-----------------------|---5-5-5-5------5-5-5-----| 
D|---3-3-3-3--x-x-3--3---|---5-5-5-5--x-x-5-5-5-----| 
A|---3-3-3-3--x-x-3--3---|---3-3-3-3--x-x-3-3-3-----| 
D|---3-3-3-3--x-x-3--3---|------------x-x-----------| 


e|-----------------------|--------------------------| 
B|-----------------------|--------------------------| 
G|-----------------------|---3-3-3-3---------3-3----| 
D|---0-0-0-0--x-x-0--0---|---3-3-3-3--x-x-x--3-3----| 
A|---0-0-0-0--x-x-0--0---|---1-1-1-1--x-x-x--1-1----| 
D|---0-0-0-0--x-x-0--0---|------------x-x-x---------| 

e|-----------------------|--------------------------| 
B|-----------------------|--------------------------| 
G|-----------------------|--------------------------| 
D|---3-3-3-3--x-x-3--3---|---7-7-7-7--x-x-7-7-7-----| 
A|---3-3-3-3--x-x-3--3---|---5-5-5-5--x-x-5-5-5-----| 
D|---3-3-3-3--x-x-3--3---|---5-5-5-5--x-x-5-5-5-----| 

Bridge 
e|-----------|-----------|-----------|-----------| 
B|-----------|-----------|-----------|-----------| 
G|-----------|-----------|---3-------|---5-------| 
D|---0-------|---5-------|---3-------|---5-------| x4 
A|---0-------|---3-------|---1-------|---3-------| 
D|---0-------|---3-------|-----------|-----------| 

Chorus 
N.H .  .  .  . 
e|-12-12-12-12-| 
B|-------------| 
G|-------------| 
D|-------------| 
A|-------------| 
D|-------------| 

e|-----------------------|--------------------------| 
B|-----------------------|--------------------------| 
G|-----------------------|---3-3-3-3---------3-3----| 
D|---0-0-0-0--x-x-0--0---|---3-3-3-3--x-x-x--3-3----| 
A|---0-0-0-0--x-x-0--0---|---1-1-1-1--x-x-x--1-1----| 
D|---0-0-0-0--x-x-0--0---|------------x-x-x---------| 

e|-----------------------|--------------------------| 
B|-----------------------|--------------------------| 
G|-----------------------|---5-5-5-5------5-5-5-----| 
D|---3-3-3-3--x-x-3--3---|---5-5-5-5--x-x-5-5-5-----| 
A|---3-3-3-3--x-x-3--3---|---3-3-3-3--x-x-3-3-3-----| 
D|---3-3-3-3--x-x-3--3---|------------x-x-----------| 


e|-----------------------|--------------------------| 
B|-----------------------|--------------------------| 
G|-----------------------|---3-3-3-3---------3-3----| 
D|---0-0-0-0--x-x-0--0---|---3-3-3-3--x-x-x--3-3----| 
A|---0-0-0-0--x-x-0--0---|---1-1-1-1--x-x-x--1-1----| 
D|---0-0-0-0--x-x-0--0---|------------x-x-x---------| 

e|-----------------------|--------------------------| 
B|-----------------------|--------------------------| 
G|-----------------------|--------------------------| 
D|---3-3-3-3--x-x-3--3---|---7-7-7-7--x-x-7-7-7-----| 
A|---3-3-3-3--x-x-3--3---|---5-5-5-5--x-x-5-5-5-----| 
D|---3-3-3-3--x-x-3--3---|---5-5-5-5--x-x-5-5-5-----| 

Outro 
e|---------------------|---------------------|---------------------| 
B|---------------------|---------------------|---------------------| 
G|---------------------|---------------------|---3-3-3-3-3-3-3-3---| 
D|---0-0-0-0-0-0-0-0---|---3-3-3-3-3-3-3-3---|---3-3-3-3-3-3-3-3---| x4 
A|---0-0-0-0-0-0-0-0---|---3-3-3-3-3-3-3-3---|---1-1-1-1-1-1-1-1---| 
D|---0-0-0-0-0-0-0-0---|---3-3-3-3-3-3-3-3---|---------------------| 


************************************ 

| x   Dead note 
| N.H Natural Harmonic 

************************************ 
  

top 5 | skillet
top rock alternativo
Outras músicas do artista letras do(a) Skillet
Top cifras »Top artistas »
Petaxxon Comunicação Online
Cifras.com.br - Melhor e mais completo site de cifras e tablaturas do Brasil
Mais de 1 milhão de acordes de músicas cadastradas desde 2003
As informações contidas no nosso site são colaborações de seus usuários e podem conter erros, sendo assim, não nos responsabilizamos sobre nenhuma destas.
close
menos
mais
close
Cor dos acordes:

Cor da letra:

 

save
close
close
 
redimensionar