Cifras e Tablaturas
Skillet

Skillet

My Beautiful Robe

Cifras Cancelar Versão de Impressão

Skillet - My Beautiful Robe

Tom: G

  			
Riff: 

e|----------------------------------------| 
B|----------------------------------------| 
G|---------------------------4-4--2-2-2---| 
D|---5-5--2-2-2-2--6----x-x--4-4--2-2-2---| x4 
A|---5-5--2-2-2-2--6----x-x--2-2--0-0-0---| 
E|---3-3--0-0-0-0--4----x-x---------------|      
     G G  A A A A  Ab        B B  A A A 
                                                                                                               
Verse: (Clean) 

e|---------2-------------7-----8--------| 
B|-------5---5---------5---5-----7------| 
G|----4--------4-----7-------7-----5----| 
D|--------------------------------------| 
A|--------------------------------------| 
E|--------------------------------------| 

e|---------2-------------7--------------| 
B|-------5---5---------5---5--8-7-5-----| 
G|----4--------4-----7--------------7---| 
D|--------------------------------------| 
A|--------------------------------------| 
E|--------------------------------------| 
                                             x2 
e|---------2-------------7-----8--------| 
B|-------5---5---------5---5-----7------| 
G|----4--------4-----7-------7-----5----| 
D|--------------------------------------| 
A|--------------------------------------| 
E|--------------------------------------| 

e|---------2-------------7--------------| 
B|-------5---5---------5---5------------| 
G|----4--------4-----7--------7-5-2-4---| 
D|--------------------------------------| 
A|--------------------------------------| 
E|--------------------------------------| 


Distortion: 

e|----------------------------------------| 
B|----------------------------------------| 
G|---------------------------4-4--2-2-2---| 
D|---5-5--2-2-2-2--6----x-x--4-4--2-2-2---| x2 
A|---5-5--2-2-2-2--6----x-x--2-2--0-0-0---| 
E|---3-3--0-0-0-0--4----x-x---------------|      
     G G  A A A A  Ab        B B  A A A 


Clean again: 

e|---------2-------------7-----8--------| 
B|-------5---5---------5---5-----7------| 
G|----4--------4-----7-------7-----5----| 
D|--------------------------------------| 
A|--------------------------------------| 
E|--------------------------------------| 

e|---------2-------------7--------------| 
B|-------5---5---------5---5--8-7-5-----| 
G|----4--------4-----7--------------7---| 
D|--------------------------------------| 
A|--------------------------------------| 
E|--------------------------------------| 
                                             x2 
e|---------2-------------7-----8--------| 
B|-------5---5---------5---5-----7------| 
G|----4--------4-----7-------7-----5----| 
D|--------------------------------------| 
A|--------------------------------------| 
E|--------------------------------------| 

e|---------2-------------7--------------| 
B|-------5---5---------5---5------------| 
G|----4--------4-----7--------7-5-2-4---| 
D|--------------------------------------| 
A|--------------------------------------| 
E|--------------------------------------| 
                                           
                                                                   

'My beautiful robe carries on...' 
Hold G 


Chorus (distorted) (I play it like this and it sounds ok) 


e|------------------------------------| 
B|------------------------------------| 
G|---5-5---7-7-7---9--9-9-------------| 
D|---5-5---7-7-7---9--9-9--5-5---5----| 
A|---3-3---5-5-5---7--7-7--5-5---5----| 
E|-------------------------3-3---3----| 
     C C   D D D   E  E E  G G   G 
                                         x2 

e|------------------------------------| 
B|------------------------------------| 
G|---5-5---7-7-7---9--9-9----12--12---| 
D|---5-5---7-7-7---9--9-9--x-12--12---| 
A|---3-3---5-5-5---7--7-7--x-10--10---| 
E|-------------------------x----------| 
     C C   D D D   E  E E    G   G 

Riff: 

e|----------------------------------------| 
B|----------------------------------------| 
G|---------------------------4-4--2-2-2---| 
D|---5-5--2-2-2-2--6----x-x--4-4--2-2-2---| 
A|---5-5--2-2-2-2--6----x-x--2-2--0-0-0---| 
E|---3-3--0-0-0-0--4----x-x---------------|      
     G G  A A A A  Ab        B B  A A A 

e|----------------------------------------| 
B|----------------------------------------| 
G|----------------------------------------| 
D|---5-5--2-2-2-2--6----x-x--x-x-x--------|  
A|---5-5--2-2-2-2--6----x-x--x-x-x--------| 
E|---3-3--0-0-0-0--4----x-x--x-x-x--------|      
     G G  A A A A  Ab        


Verse:  

e|---------2-------------7-----8--------| 
B|-------5---5---------5---5-----7------| 
G|----4--------4-----7-------7-----5----| 
D|--------------------------------------| 
A|--------------------------------------| 
E|--------------------------------------| 

e|---------2-------------7--------------| 
B|-------5---5---------5---5--8-7-5-----| 
G|----4--------4-----7--------------7---| 
D|--------------------------------------| 
A|--------------------------------------| 
E|--------------------------------------| 
                                             x2 
e|---------2-------------7-----8--------| 
B|-------5---5---------5---5-----7------| 
G|----4--------4-----7-------7-----5----| 
D|--------------------------------------| 
A|--------------------------------------| 
E|--------------------------------------| 

e|---------2-------------7--------------| 
B|-------5---5---------5---5------------| 
G|----4--------4-----7--------7-5-2-4---| 
D|--------------------------------------| 
A|--------------------------------------| 
E|--------------------------------------| 


Chorus: 


e|------------------------------------| 
B|------------------------------------| 
G|---5-5---7-7-7---9--9-9-------------| 
D|---5-5---7-7-7---9--9-9--5-5---5----| 
A|---3-3---5-5-5---7--7-7--5-5---5----| 
E|-------------------------3-3---3----| 
     C C   D D D   E  E E  G G   G 
                                         x4 

e|------------------------------------| 
B|------------------------------------| 
G|---5-5---7-7-7---9--9-9----12--12---| 
D|---5-5---7-7-7---9--9-9--x-12--12---| 
A|---3-3---5-5-5---7--7-7--x-10--10---| 
E|-------------------------x----------| 
     C C   D D D   E  E E    G   G 


Ken does a solo but I can't figure it out, so improvise something. 


Bridge (after the bass) (distorted) 


   PM--------------|          PM--------------| 
e|---------------------------------------------------------------| 
B|---------------------------------------------------------------| 
G|---------------------------------------------------------------| 
D|---------------------------------------------------------------| 
A|--5-5-5-2-2-2-2-6-------------5-5-5-2-2-2-2-6------------------| 
E|--3-3-3-0-0-0-0-4-------------3-3-3-0-0-0-0-4------------------| 
     


e|---------------------------------|------------------------------| 
B|---------------------------------|------------------------------| 
G|---------------------------------|------------------------------| 
D|---5-5--2-2-2-2-6--x-x-x---x-x-x-|--5-5--2-2-2-2-6-x-x-x--x-x-x-| 
A|---5-5--2-2-2-2-6--x-x-x---x-x-x-|--5-5--2-2-2-2-6-x-x-x--x-x-x-| 
E|---3-3--0-0-0-0-4--x-x-x---x-x-x-|--3-3--0-0-0-0-4-x-x-x--x-x-x-| 
     G G  E E E E Ab                 G G  E E E E Ab 

e|---------------------------------|---------------------------------| 
B|---------------------------------|---------------------------------| 
G|---------------------------------|----------------------4-4-2-2-2--| 
D|---5-5--2-2-2-2-6--x-x-x---x-x-x-|--5-5--2-2-2-2-6-x-x--4-4-2-2-2--| 
A|---5-5--2-2-2-2-6--x-x-x---x-x-x-|--5-5--2-2-2-2-6-x-x--2-2-0-0-0--| 
E|---3-3--0-0-0-0-4--x-x-x---x-x-x-|--3-3--0-0-0-0-4-x-x-------------| 
     G G  E E E E Ab                 G G  E E E E Ab     B B A A A  


Chorus: 


e|------------------------------------| 
B|------------------------------------| 
G|---5-5---7-7-7---9--9-9-------------| 
D|---5-5---7-7-7---9--9-9--5-5---5----| 
A|---3-3---5-5-5---7--7-7--5-5---5----| 
E|-------------------------3-3---3----| 
     C C   D D D   E  E E  G G   G 
                                         x4 

e|------------------------------------| 
B|------------------------------------| 
G|---5-5---7-7-7---9--9-9----12--12---| 
D|---5-5---7-7-7---9--9-9--x-12--12---| 
A|---3-3---5-5-5---7--7-7--x-10--10---| 
E|-------------------------x----------| 
     C C   D D D   E  E E    G   G 


Outro: 

e|----------------------------------------| 
B|----------------------------------------| 
G|---------------------------4-4--2-2-2---| 
D|---5-5--2-2-2-2--6----x-x--4-4--2-2-2---| 
A|---5-5--2-2-2-2--6----x-x--2-2--0-0-0---| 
E|---3-3--0-0-0-0--4----x-x---------------|      
     G G  A A A A  Ab        B B  A A A 

e|----------------------------------------| 
B|----------------------------------------| 
G|----------------------------------------| 
D|---5-5--2-2-2-2--6----x-x--x-x-x--------|  
A|---5-5--2-2-2-2--6----x-x--x-x-x--------| 
E|---3-3--0-0-0-0--4----x-x--x-x-x--------|      
     G G  A A A A  Ab        

e|----------------------------------------| 
B|----------------------------------------| 
G|---------------------------4-4--2-2-2---| 
D|---5-5--2-2-2-2--6----x-x--4-4--2-2-2---| 
A|---5-5--2-2-2-2--6----x-x--2-2--0-0-0---| 
E|---3-3--0-0-0-0--4----x-x---------------|      
     G G  A A A A  Ab        B B  A A A 

e|----------------------| 
B|----------------------| 
G|----------------------| 
D|---5-5--2-2-2-2--6----|  
A|---5-5--2-2-2-2--6----| 
E|---3-3--0-0-0-0--4----|      
     G G  A A A A  Ab        


*********************************** 

| x   Dead note 
| /   Slide-up 
| pb  Pre-bend 
| ~   Vibrato 
| .   Staccato 
| PM  Palm muting 

*********************************** 
    	
fixar
fixar inscrever-se

enviado porenviado por: alyslima
cifra enviadaCorrigida por: sem correções
logo top cifrasComente
ico música do artistaMúsicas deste artista
ico curtiuCurtiu?
ico destaqueDestaque
Petaxxon Comunicação Online

Cifras.com.br - Melhor e mais completo site de cifras e tablaturas do Brasil Mais de 1 milhão de acordes de músicas cadastradas desde 2003
As informações contidas no nosso site são colaborações de seus usuários e podem conter erros, sendo assim, não nos responsabilizamos sobre nenhuma destas.

close
menos
mais
close
Cor dos acordes:

Cor da letra:

close
Alinhar acordes a direita Alinhar acordes a esquerda Alinhar acordes em baixo Alinhar acordes no topo
close
  Mostrar todos os acordes Esconder acordes muito fáceis Esconder acordes fáceis Esconder acordes intermediários
redimensionar
glossário