Cifras e Tablaturas
Skin Yard

Skin Yard

Stranger

Cifras Cancelar Versão de Impressão
cifras

Skin Yard - Stranger

fixar na tela  
Exibindo: vídeo-aula ver clipes redimensionar

Tom:

  
Intro 
e|------------------------4-4-4-4-| 
B|------------------------3-3-3-3-| 
G|---------3-----3--3-------------| 
D|---------3-----3--3-------------| (x3) 
A|-3p2-----1-----1--1-------------| 
E|-1p0-0-0---0-0------0-0---------| 
PM     - -   - -      - - 

e|------------------------3-3-3h4-| 
B|------------------------3-3-3-3-| 
G|---------3-----3--3-------------| 
D|---------3-----3--3-------------| 
A|-3p2-----1-----1--1-------------| 
E|-1p0-0-0---0-0------0-0---------| 
PM     - -   - -      - - 

verse 1 
e|---------------------------------| 
B|---------------------------------| 
G|---------------------------------| 
D|-6-----6-------5-6-----6-------5-| (x11) 
A|---5-5---5-5-5-----5-5---5-5-5---| 
E|---------------------------------| 

e|---------------------------------| 
B|---------------------------------| 
G|---------------------------------| 
D|-6-----6-------5-8-8-8-8-8-8-8-8-| 
A|---5-5---5-5-5---8-8-8-8-8-8-8-8-| 
E|-----------------6-6-6-6-6-6-6-6-| 

Chorus 
e|------------------------4-4-4-4-| 
B|------------------------3-3-3-3-| 
G|---------3-----3--3-------------| 
D|---------3-----3--3-------------| (x3) 
A|-3p2-----1-----1--1-------------| 
E|-1p0-0-0---0-0------0-0---------| 
PM     - -   - -      - - 

e|------------------------3-3-3h4-| 
B|------------------------3-3-3-3-| 
G|---------3-----3--3-------------| 
D|---------3-----3--3-------------| 
A|-3p2-----1-----1--1-------------| 
E|-1p0-0-0---0-0------0-0---------| 
PM     - -   - -      - - 

verse 2 
e|---------------------------------| 
B|---------------------------------| 
G|---------------------------------| 
D|-6-----6-------5-6-----6-------5-| (x11) 
A|---5-5---5-5-5-----5-5---5-5-5---| 
E|---------------------------------| 

e|---------------------------------| 
B|---------------------------------| 
G|---------------------------------| 
D|-6-----6-------5-8-8-8-8-8-8-8-8-| 
A|---5-5---5-5-5---8-8-8-8-8-8-8-8-| 
E|-----------------6-6-6-6-6-6-6-6-| 

Chorus 
e|------------------------4-4-4-4-| 
B|------------------------3-3-3-3-| 
G|---------3-----3--3-------------| 
D|---------3-----3--3-------------| (x3) 
A|-3p2-----1-----1--1-------------| 
E|-1p0-0-0---0-0------0-0---------| 
PM     - -   - -      - - 

e|------------------------3-3-3h4-| 
B|------------------------3-3-3-3-| 
G|---------3-----3--3-------------| 
D|---------3-----3--3-------------| 
A|-3p2-----1-----1--1-------------| 
E|-1p0-0-0---0-0------0-0---------| 
PM     - -   - -      - - 

Post-Chorus 
e|------------------------|------------------------| 
B|------------------------|------------------------| 
G|-2--2-2-2--2--3/4---3/4-|------------------------| 
D|-2--2-2-2--2--3/4---3/4-|-3--3-3-3--3--3/4---3/4-| (x4) 
A|-0--0-0-0--0--1/2-0-1/2-|-3--3-3-3--3--3/4---3/4-| 
E|------------------------|-1--1-1-1--1--1/2-0-1/2-| 

Chorus 
e|------------------------4-4-4-4-| 
B|------------------------3-3-3-3-| 
G|---------3-----3--3-------------| 
D|---------3-----3--3-------------| (x3) 
A|-3p2-----1-----1--1-------------| 
E|-1p0-0-0---0-0------0-0---------| 
PM     - -   - -      - - 

e|------------------------3-3-3h4-| 
B|------------------------3-3-3-3-| 
G|---------3-----3--3-------------| 
D|---------3-----3--3-------------| 
A|-3p2-----1-----1--1-------------| 
E|-1p0-0-0---0-0------0-0---------| 
PM     - -   - -      - - 

verse 1 
e|---------------------------------| 
B|---------------------------------| 
G|---------------------------------| 
D|-6-----6-------5-6-----6-------5-| (x11) 
A|---5-5---5-5-5-----5-5---5-5-5---| 
E|---------------------------------| 

e|---------------------------------| 
B|---------------------------------| 
G|---------------------------------| 
D|-6-----6-------5-----------------| 
A|---5-5---5-5-5-------------------| 
E|---------------------------------| 

Chorus 
e|------------------------4-4-4-4-| 
B|------------------------3-3-3-3-| 
G|---------3-----3--3-------------| 
D|---------3-----3--3-------------| (x3) 
A|-3p2-----1-----1--1-------------| 
E|-1p0-0-0---0-0------0-0---------| 
PM     - -   - -      - - 

e|------------------------3-3-3h4-| 
B|------------------------3-3-3-3-| 
G|---------3-----3--3-------------| 
D|---------3-----3--3-------------| 
A|-3p2-----1-----1--1-------------| 
E|-1p0-0-0---0-0------0-0---------| 
PM     - -   - -      - - 

Post-Chorus 
e|------------------------|------------------------| 
B|------------------------|------------------------| 
G|-2--2-2-2--2--3/4---3/4-|------------------------| 
D|-2--2-2-2--2--3/4---3/4-|-3--3-3-3--3--3/4---3/4-| (x4) 
A|-0--0-0-0--0--1/2-0-1/2-|-3--3-3-3--3--3/4---3/4-| 
E|------------------------|-1--1-1-1--1--1/2-0-1/2-| 

Chorus 
e|------------------------4-4-4-4-|------------------------3-------| 
B|------------------------3-3-3-3-|------------------------2-------| 
G|---------3-----3--3-------------|---------3-----3--3-------------| (x6) 
D|---------3-----3--3-------------|---------3-----3--3-------------| 
A|-3p2-----1-----1--1-------------|-3p2-----1-----1--1-------------| 
E|-1p0-0-0---0-0------0-0---------|-1p0-0-0---0-0------0-0---------| 
PM     - -   - -      - -               - -   - -      - - 

e|------------------------4-4-4-4-|------------------------4-------| 
B|------------------------3-3-3-3-|------------------------3-------| 
G|---------3-----3--3-------------|---------3-----3--3-----3-------| 
D|---------3-----3--3-------------|---------3-----3--3-----0-------| 
A|-3p2-----1-----1--1-------------|-3p2-----1-----1--1-------------| 
E|-1p0-0-0---0-0------0-0---------|-1p0-0-0---0-0------0-0---------| 
PM     - -   - -      - -               - -   - -      - - 


************************************ 

| h   Hammer-on 
| p   Pull-off 
| /   Slide up 
| PM  Palm mute 

************************************ 
  

top 5 | skin yard
top rock'n roll
Outras músicas do artista letras do(a) Skin Yard
Top cifras »Top artistas »
Petaxxon Comunicação Online
Cifras.com.br - Melhor e mais completo site de cifras e tablaturas do Brasil
Mais de 1 milhão de acordes de músicas cadastradas desde 2003
As informações contidas no nosso site são colaborações de seus usuários e podem conter erros, sendo assim, não nos responsabilizamos sobre nenhuma destas.
close
menos
mais
close
Cor dos acordes:

Cor da letra:

 

save
close
close
 
redimensionar