Cifras e Tablaturas
Skin Yard

Skin Yard

Through Nothing

Cifras Cancelar Versão de Impressão
cifras

Skin Yard - Through Nothing

fixar na tela  
Exibindo: vídeo-aula ver clipes redimensionar

Tom:

  
  Verse: 
e|-------------------------------------------------| 
B|-------------------------------------------------| 
G|-----1---------------------1-------------0~------| 
D|---2-------0-----2-0~----2-------0-----2---------| 
A|-------------------------------------------------| 
E|-0-----0-3---3-0-------0-----0-3---x-0-----------| 

  Post Verse: 
e|----------------------------------------------| 
B|----------------------------------------------| 
G|-1-1-1---------2-2-2-2-2-2--1-1-1--2-2-2------| 
D|-2-2-2--0-0-0--2-2-2-2-2-2--2-2-2--2-2-2--0~--| 
A|-2-2-2--2-2-2--0-0-0-0-0-0--2-2-2--0-0-0--2~--| 
E|-0-0-0--3-3-3---------------0-0-0---------3~--| 

  Chorus: 
e|-----------------------------| 
B|-----------------------------| 
G|-1-1-1-1--2-2-2--0-0-0-0-0-0-| 
D|-2-2-2-2--2-2-2--0-0-0-0-0-0-| 
A|-2-2-2-2--0-0-0--2-2-2-2-2-2-| 
E|-0-0-0-0---------3-3-3-3-3-3-| 

 
  

top 5 | skin yard
top rock'n roll
Outras músicas do artista letras do(a) Skin Yard
Top cifras »Top artistas »
Petaxxon Comunicação Online
Cifras.com.br - Melhor e mais completo site de cifras e tablaturas do Brasil
Mais de 1 milhão de acordes de músicas cadastradas desde 2003
As informações contidas no nosso site são colaborações de seus usuários e podem conter erros, sendo assim, não nos responsabilizamos sobre nenhuma destas.
close
menos
mais
close
Cor dos acordes:

Cor da letra:

 

save
close
close
 
redimensionar