Cifras e Tablaturas
skrewdriver

skrewdriver

I Dont Like You

Cifras Cancelar Versão de Impressão
cifras

skrewdriver - I Dont Like You

fixar na tela  
Exibindo: vídeo-aula ver clipes redimensionar

Tom:

  
e|----------------------| 
B|----------------------| 
G|-------------------7--| Repeat x6  
D|-9-9-9-9-9-9-9-9-9-7-7| 
A|-9-9-9-9-9-9-9-9-9-5-7| 
E|-7-7-7-7-7-7-7-7-7---5| 


e|---------------------| 
B|---------------------| 
G|---------------------|  Repeat x3 
D|-9--9-7----9--9-7----| 
A|-7--7-5-7--7--7-5-7--| 
E|--------5---------5--| 

And that's really it... you're gonna have to figure out the intro on you own 
I know part of it, which is... 

e|---------------------| 
B|---------------------| 
G|---------------------| 
D|-9-9-9-9--7-7--------| 
A|-9-9-9-9--7-7--------| 
E|-7-7-7-7--5-5--------| 
  

top 5 | skrewdriver
top rock clássico
Outras músicas do artista letras do(a) skrewdriver
Top cifras »Top artistas »
Petaxxon Comunicação Online
Cifras.com.br - Melhor e mais completo site de cifras e tablaturas do Brasil
Mais de 1 milhão de acordes de músicas cadastradas desde 2003
As informações contidas no nosso site são colaborações de seus usuários e podem conter erros, sendo assim, não nos responsabilizamos sobre nenhuma destas.
close
menos
mais
close
Cor dos acordes:

Cor da letra:

 

save
close
close
 
redimensionar