Cifras e Tablaturas
Slash

Slash

Beneath The Savage Sun

Cifras Cancelar Versão de Impressão
cifras

Slash - Beneath The Savage Sun

fixar na tela  
Exibindo: vídeo-aula ver clipes redimensionar
  D#|-----------------------------------------------------------------------| 
A#|-----------------------------------------------------------------------| 
F#|-----------------------------------------------------------------------|   4X 
C#|---2-3-4---5---2-------------------------------------------------------| 
G#|---2-3-4---5---2---1p0-------------------------------------------------| 
D#|-0-------0---0---0-----3-----------------------------------------------| 
 
 
D#|-----------------------------------------------------------------------| 
A#|-----------------------------------------------------------------------| 
F#|-----------4---6-------------------------------------------------------|  3X 
C#|---2-3-4---5---7-------------------------------------------------------| 
G#|---2-3-4---5---7-------------------------------------------------------| 
D#|-0-------3---5---7-6-5-3-----------------------------------------------| 
 
 
D#|-----------------------------------------------------------------------| 
A#|-----------------------------------------------------------------------| 
F#|-----------4---6-5~----------------------------------------------------|  
C#|---2-3-4---5---7-5~----------------------------------------------------| 
G#|---2-3-4---5---7-3~--3-2-0-1-0-----------------------------------------| 
D#|-0-------3---5-----------------3-2-------------------------------------| 
 


INTRO PAERTE II 
 
D#|-----------------------------------------------------------------------| 
A#|-----------------------------------------------------------------------| 
F#|-----------------------------------------------------------------------|  3X 
C#|-----------------------------------------------------------------------| 
G#|--------3/4------5------7----7-9/10------------------------------------| 
D#|-0--0-0-1/2--0-0-3--0-0-5--0-5-7/8-------------------------------------|  
 
P.M .  . .      . .    . .    . 

 
D#|-----------------------------------------------------------------------| 
A#|-----------------------------------------------------------------------| 
F#|-----------------------------------------------------------------------| 
C#|-----------------------------------------------------------------------| 
G#|--------3/4------5------7----------------------------------------------| 
D#|-0--0-0-1/2--0-0-3--0-0-5--0-7-6-5-------------------------------------|  
 
P.M .  . .      . .    . .    . . . . 

1ª PARTE 
 
D#|-----------------------------------------------------------------------| 
A#|-----------------------------------------------------------------------| 
F#|-----------------------------------------------------------------------|   4X 
C#|---2-3-4---5---2-------------------------------------------------------| 
G#|---2-3-4---5---2---1p0-------------------------------------------------| 
D#|-0-------0---0---0-----3-----------------------------------------------| 
 
 
D#|-----------------------------------------------------------------------| 
A#|-----------------------------------------------------------------------| 
F#|-----------4---6-------------------------------------------------------|  3X 
C#|---2-3-4---5---7-------------------------------------------------------| 
G#|---2-3-4---5---7-------------------------------------------------------| 
D#|-0-------3---5---7-6-5-3-----------------------------------------------| 
 


PRÉ-REFRÃO 
 
D#|---------------------------------------0-------3---3-----------------| 
A#|---------------------------------------0-------3---3-----------------| 
F#|-----------4---6-5-x-5-5-5-4-x-4-------------------------------------|  
C#|---2-3-4---5---7-5-x-5-5-5-4-x-4-----2-------------------------------| 
G#|---2-3-4---5---7-3-x-3-3-3-2-x-2-----2-----------2---2---------------| 
D#|-0-------3---5-------------------3-2-0---0-2-3---3---3---------------| 
 
 
D#|-----------------------------------------------------------------------| 
A#|-----------------------------------------------------------------------| 
F#|-5-x-5-5-5-4-x-4-4-4---------------------------------------------------|  
C#|-5-x-5-5-5-4-x-4-4-4-7-x-7-7-7-5-x-5-5-5-------------------------------| 
G#|-3-x-3-3-3-2-x-2-2-2-7-x-7-7-7-5-x-5-5-5-------------------------------| 
D#|---------------------5-x-5-5-5-3-x-3-3-3-------------------------------| 
 
 
D#|-----------------------------------------------------------------------| 
A#|-----------------------------------------------------------------------| 
F#|-----------------------------------------------------------------------|  
C#|-----------------------------------------------------------------------| 
G#|-2-2-2-2-2-2-2-2-2-3-2-0-1-0-------------------------------------------| 
D#|-----------------------------3-2---------------------------------------| 
 
P.M.. . . . . . . . 


REFRÃO 
 
D#|-----------------------------------------------------------------------| 
A#|-----------------------------------------------------------------------| 
F#|-----------------------------------------------------------------------|     
C#|----------------2----------5---------5-5-7-4-4-------------------------| 
G#|-2----------2-2-0-5--5-5-5-3-3-3-3-3-3-3-5-2-2-0-----------------------| 
D#|-0--0-0-0-0-0-0---3--3-3-3-----------------------3-2-------------------| 
 
  P.M  . . . .             P.M  . . . .  

 
D#|-----------------------------------------------------------------------| 
A#|-----------------------------------------------------------------------| 
F#|-----------------------------------------------------------------------|     
C#|----------------2----------5---------5-5-7-4-2-------------------------| 
G#|-2----------2-2-0-5--5-5-5-3-3-3-3-3-3-3-5-2-0-5-4---------------------| 
D#|-0--0-0-0-0-0-0---3--3-3-3---------------------3-2---------------------| 
 
  P.M  . . . .             P.M  . . . .  

2ª PARTE 

 
D#|-----------------------------------------------------------------------| 
A#|-----------------------------------------------------------------------| 
F#|-----------------------------------------------------------------------|   2X 
C#|---2-3-4---5---2-------------------------------------------------------| 
G#|---2-3-4---5---2---1p0-------------------------------------------------| 
D#|-0-------0---0---0-----3-----------------------------------------------| 
 
 
D#|-----------------------------------------------------------------------| 
A#|-----------------------------------------------------------------------| 
F#|-----------------------------------------------------------------------| 
C#|-----------------------------------------------------------------------| 
G#|-2-2-2-2-2-2-2-2-2-2-2-2-2-2-2-2-2-1p0---------------------------------| 
D#|-0-0-0-0-0-0-0-0-0-0-0-0-0-0-0-0-0-----3-------------------------------| 
 
 
D#|-----------------------------------------------------------------------| 
A#|-----------------------------------------------------------------------| 
F#|-----------4---6-------------------------------------------------------|  3X 
C#|---2-3-4---5---7-------------------------------------------------------| 
G#|---2-3-4---5---7-------------------------------------------------------| 
D#|-0-------3---5---7-6-5-3-----------------------------------------------| 
 


PRÉ-REFRÃO 
 
D#|---------------------------------------0-------3---3-----------------| 
A#|---------------------------------------0-------3---3-----------------| 
F#|-----------4---6-5-x-5-5-5-4-x-4-------------------------------------|  
C#|---2-3-4---5---7-5-x-5-5-5-4-x-4-----2-------------------------------| 
G#|---2-3-4---5---7-3-x-3-3-3-2-x-2-----2-----------2---2---------------| 
D#|-0-------3---5-------------------3-2-0---0-2-3---3---3---------------| 
 
 
D#|-----------------------------------------------------------------------| 
A#|-----------------------------------------------------------------------| 
F#|-5-x-5-5-5-4-x-4-4-4---------------------------------------------------|  
C#|-5-x-5-5-5-4-x-4-4-4-7-x-7-7-7-5-x-5-5-5-------------------------------| 
G#|-3-x-3-3-3-2-x-2-2-2-7-x-7-7-7-5-x-5-5-5-------------------------------| 
D#|---------------------5-x-5-5-5-3-x-3-3-3-------------------------------| 
 
 
D#|-----------------------------------------------------------------------| 
A#|-----------------------------------------------------------------------| 
F#|-----------------------------------------------------------------------|  
C#|-----------------------------------------------------------------------| 
G#|-2-2-2-2-2-2-2-2-2-3-2-0-1-0-------------------------------------------| 
D#|-----------------------------3-2---------------------------------------| 
 
P.M . . . . . . . . 

REFRÃO 
 
D#|-----------------------------------------------------------------------| 
A#|-----------------------------------------------------------------------| 
F#|-----------------------------------------------------------------------| 3X     
C#|----------------2----------5---------5-5-7-4-4-------------------------| 
G#|-2----------2-2-0-5--5-5-5-3-3-3-3-3-3-3-5-2-2-0-----------------------| 
D#|-0--0-0-0-0-0-0---3--3-3-3-----------------------3-2-------------------| 
 
  P.M  . . . .             P.M  . . . .  

 
D#|-----------------------------------------------------------------------| 
A#|-----------------------------------------------------------------------| 
F#|-----------------------------------------------------------------------|     
C#|----------------2----------5---------5-5-7-4-2-------------------------| 
G#|-2----------2-2-0-5--5-5-5-3-3-3-3-3-3-3-5-2-0-5-4---------------------| 
D#|-0--0-0-0-0-0-0---3--3-3-3---------------------3-2---------------------| 
 
  P.M  . . . .             P.M  . . . .  

SOLO PARTE I 
 
D#|-----------------------------------------------------------------------| 
A#|-----------------------------------------------------------------------| 
F#|-----------------------------------------------------------------------| 
C#|-5h6h7-5h6h8-5h6h7-5h6h7-5h6h7-5h6h7-5h6h7-5h6h7/9---------------------| 
G#|-----------------------------------------------------------------------| 
D#|-----------------------------------------------------------------------| 
 
 
D#|-----------------------------------------------------------------------| 
A#|-----------------------------------------------------------------------| 
F#|-----------------------------------------------------------------------| 
C#|-5h7-7-7-5-5-5-7-7-7-5-5-5---------------------------------------------| 
G#|---------------------------7-7-7-7-7-6-6-6-5-5-5-3-5-3-3-3-3-3-3-3-3-3-| 
D#|-----------------------------------------------------------------------| 
 
 
D#|----------------------------------------5-5-----5-----5-----5-----5-----| 
A#|----------------------------------------5---8-5---8-5---8-5---8-5---8-5-| 
F#|----------------------------5-7-5---5-7---------------------------------| 
C#|------------5-7-5---5---5-7-------7-------------------------------------| 
G#|---3/-6-6-7-------7---7-------------------------------------------------| 
D#|-5----------------------------------------------------------------------| 
 
 
D#|-8-5---5-8p5---5-8p5---5-8p5---10p8----8-10p8----8-10p8----8-10p8----8-10p8-| 
A#|-----8-------8-------8-------8------10--------10--------10--------10--------| 
F#|----------------------------------------------------------------------------| 
C#|----------------------------------------------------------------------------| 
G#|----------------------------------------------------------------------------| 
D#|----------------------------------------------------------------------------| 
 
 
D#|----8-10p8----10p8--10p8-----15p13------------------------------------------| 
A#|-10--------10------------12/-------15b17~r15-13-15b16-17b19r17-15b17r15-1---| 
F#|----------------------------------------------------------------------------| 
C#|----------------------------------------------------------------------------| 
G#|----------------------------------------------------------------------------| 
D#|----------------------------------------------------------------------------| 
 
 
D#|-8-5---5-8p5---5-8p5---5-8p5---10p8----8-10p8----8-10p8----8-10p8----8-10p8-| 
A#|-----8-------8-------8-------8------10--------10--------10--------10--------| 
F#|----------------------------------------------------------------------------| 
C#|----------------------------------------------------------------------------| 
G#|----------------------------------------------------------------------------| 
D#|----------------------------------------------------------------------------| 
 
 
D#|--------------------------------------------------------11/15-14-15p14\12-14-| 
A#|-13-12-13-12h13p12-----------------------------12h13h15----------------------| 
F#|-------------------14b16-12-----------11-12h14-------------------------------| 
C#|----------------------------14-13~-14----------------------------------------| 
G#|-----------------------------------------------------------------------------| 
D#|-----------------------------------------------------------------------------| 
 
 
D#|-12h14p12-11-14-12----------------------------------------------------------| 
A#|-------------------12-------------------------------------------------------| 
F#|----------------------12-11-12p11\9~~---------------------------------------| 
C#|----------------------------------------------------------------------------| 
G#|----------------------------------------------------------------------------| 
D#|----------------------------------------------------------------------------| 
 

SOLO PARTE II 
 
D#|-15-14-12--------15-14-12~--------------------------------------7-----------| 
A#|----------12~-------------------------8-7-8-------10---10-7---7---10------8-| 
F#|------------------------------------9-------9---9----9------8-----------9---| 
C#|----------------------------------9-----------9----------------------10-----| 
G#|-----------------------------7-10-------------------------------------------| 
D#|----------------------------------------------------------------------------| 
 
 
D#|-----------------------------------------------------------------------| 
A#|-10-12-10---------8-10-8------7-7-8-7-----7----------------------------| 
F#|----------------9---------------------8-----9--------------------------| 
C#|-------------10-------------9-----------9-----9------------------------| 
G#|----------12-------------10---------------------10-9-7-6---------------| 
D#|-----------------------------------------------------------------------| 
 
 
D#|------------------------------------7---------------------------------------| 
A#|----------8-7-8-------10---10-7---7---10------8-----------------------------| 
F#|--------9-------9---9----9------8-----------9-------------------------------| 
C#|------9-----------9----------------------10---------------------------------| 
G#|-7-10-----------------------------------------------------------------------| 
D#|----------------------------------------------------------------------------| 
 
 
D#|-----------------------------------------------------------------------| 
A#|-10-12-10---------8-10-8------7-7-8-7-----7----------------------------| 
F#|----------------9---------------------8-----9--------------------------| 
C#|-------------10-------------9-----------9-----9------------------------| 
G#|----------12-------------10---------------------10-9-7-6---------------| 
D#|-----------------------------------------------------------------------| 
 
 
D#|------------------------------------7---------------------------------------| 
A#|----------8-7-8-------10---10-7---7---10------8-----------------------------| 
F#|--------9-------9---9----9------8-----------9-------------------------------| 
C#|------9-----------9----------------------10---------------------------------| 
G#|-7-10-----------------------------------------------------------------------| 
D#|----------------------------------------------------------------------------| 
 
 
D#|-----------------------------------------------------------------------| 
A#|-10-12-10---------8-10-8------7-7-8-7-----7----------------------------| 
F#|----------------9---------------------8-----9--------------------------| 
C#|-------------10-------------9-----------9------------------------------| 
G#|----------12-------------10--------------------------------------------| 
D#|-----------------------------------------------------------------------| 
 

SOLO PARTE III 
 
D#|-------------------------------------------------------------------------------| 
A#|-------------------------------------------------------------------------------| 
F#|-------------------------------------------------------------------------------| 
C#|-14-14-14-14-14-14-14-14-14-14-14-14-14-14-14-14-14-14-14-14-14-14-14-14-14-14-| 
G#|-------------------------------------------------------------------------------| 
D#|-------------------------------------------------------------------------------| 
 
 
D#|-------------------------------------------------------------------------------| 
A#|-------------------------------------------------------------------------------| 
F#|-------------------------------------------------------------------------------| 
C#|-16-16-16-16-16-16-16-16-16-16-16-16-16-16-16-16-16-16-16-16-16-16-16-16-16-16-| 
G#|-------------------------------------------------------------------------------| 
D#|-------------------------------------------------------------------------------| 
 
 
D#|-------------------------------------------------------------------------------| 
A#|-------------------------------------------------------------------------------| 
F#|-14/16-16-16-16-16-16-16-16-16-16-16-16-16-16-16-16-16-16-16-16-16-16-16-16-16-| 
C#|-------------------------------------------------------------------------------| 
G#|-------------------------------------------------------------------------------| 
D#|-------------------------------------------------------------------------------| 
 
 
D#|-------------------------------------------------------------------------------| 
A#|-------------------------------------------------------------------------------| 
F#|-17-17-17-17-17-17-17-17-17-17-17-17-14-14-14-14-14-14-14-14-14-14-14-14-------| 
C#|-------------------------------------------------------------------------------| 
G#|-------------------------------------------------------------------------------| 
D#|-------------------------------------------------------------------------------| 
 
 
D#|-------------------------------------------------------------------------------| 
A#|-------------------------------------------------------------------------------| 
F#|-16-16-16-16-16-16-16-16-16-16-16-16-12-12-12-12-12-12-12-12-12-12-12-12-------| 
C#|-------------------------------------------------------------------------------| 
G#|-------------------------------------------------------------------------------| 
D#|-------------------------------------------------------------------------------| 
 
 
D#|-------------------------------------------------------------------------------| 
A#|-------------------------------------------------------------------------------| 
F#|-14-14-14-14-14-14-12-12-12-12-12-12-11-11-11-11-11-11-12-12-12-12-12-12-------| 
C#|-------------------------------------------------------------------------------| 
G#|-------------------------------------------------------------------------------| 
D#|-------------------------------------------------------------------------------| 
 
 
D#|-------------------------------------------------------------------------------| 
A#|-------------------------------------------------------------------------------| 
F#|-------------------------------------------------------------------------------| 
C#|-11-11-11-11-11-11-11-11-11-11-11-11-11-11-11-11-11-11-11-11-11-11-11-11-11-11-| 
G#|-------------------------------------------------------------------------------| 
D#|-------------------------------------------------------------------------------| 
 
 
D#|-------------------------------------------------------------------------------| 
A#|-------------------------------------------------------------------------------| 
F#|-8-8-8-8-8-8-11-11-11-11-11-11-9-9-9-9-9-9-9-9-9-9-9-9-9-9-9-9-9-9-9-9-9-9-9-9-| 
C#|-------------------------------------------------------------------------------| 
G#|-------------------------------------------------------------------------------| 
D#|-------------------------------------------------------------------------------| 
 
 
D#|-------------------------------------------------------------------------------------| 
A#|-15b17-17b19-19-19-19-19-19-19-19-19-19-19-19-19-19-19-19-19-19-19-19-19-19-19-19-19-| 
F#|-------------------------------------------------------------------------------------| 
C#|-------------------------------------------------------------------------------------| 
G#|-------------------------------------------------------------------------------------| 
D#|-------------------------------------------------------------------------------------| 
 
 
D#|-------18/19-19-19-19-19-19-19-19\-20-20-20-20-20-20-20-20-20-20-20-20---------| 
A#|-15/16-------------------------------------------------------------------------| 
F#|-------------------------------------------------------------------------------| 
C#|-------------------------------------------------------------------------------| 
G#|-------------------------------------------------------------------------------| 
D#|-------------------------------------------------------------------------------| 
 
 
D#|-17-17-17-17-17-17-17-17-17-17-17-17-19-19-19-19-19-19-19-19-19-19-19-19-19----| 
A#|-------------------------------------------------------------------------------| 
F#|-------------------------------------------------------------------------------| 
C#|-------------------------------------------------------------------------------| 
G#|-------------------------------------------------------------------------------| 
D#|-------------------------------------------------------------------------------| 
 
 
D#|-15-15-15-15-17-17-17-17-17-17-15h17-14-14-14-14-14-14-15-15-15-15-15-15-14-15p14-15p14-| 
A#|----------------------------------------------------------------------------------------| 
F#|----------------------------------------------------------------------------------------| 
C#|----------------------------------------------------------------------------------------| 
G#|----------------------------------------------------------------------------------------| 
D#|----------------------------------------------------------------------------------------| 
 
 
D#|-12-14p12-14p11-12h14-11b12-------12----------------------15----------15--------------| 
A#|-------------------------------12----12-15b16-15p12-15b16----15-15b16----15-15b16-----| 
F#|---------------------------14\--------------------------------------------------------| 
C#|--------------------------------------------------------------------------------------| 
G#|--------------------------------------------------------------------------------------| 
D#|--------------------------------------------------------------------------------------| 
 
 
D#|----------------------------------15----------------------------------------------------------| 
A#|-12h13b14-13-13p12-13p12----12-13----12-------------------------------------------------------| 
F#|-------------------------14-------------------12-15r14-15r14-15r14-15r14-12-------15r14-15r14-| 
C#|----------------------------------------12h14-------------------------------14-14-------------| 
G#|----------------------------------------------------------------------------------------------| 
D#|----------------------------------------------------------------------------------------------| 
 
 
D#|-------------------------------------------------------------------------------| 
A#|-------------------------------------------------------------------------------| 
F#|-12----14p12----12-14----14----14-12-------------------------------------------| 
C#|----14-------14-------15----15-------------------------------------------------| 
G#|-------------------------------------------------------------------------------| 
D#|-------------------------------------------------------------------------------| 
 
 
D#|-------------------------------------------------------------------------------| 
A#|----------------------15----15-------------------15b16-------------------------| 
F#|-12----14p12----12-14----14----14-12----14p12----------------------------------| 
C#|----14-------14----------------------14-------14-------------------------------| 
G#|-------------------------------------------------------------------------------| 
D#|-------------------------------------------------------------------------------| 
 
 
D#|-0-2-3-0-3-2-0-3-2-0-3-2-5-3-2-5-3-2-5-3-2-5-3-2-5-7-5-3-7-5-3-7-5-3-7-5-8-7-5-8-7-5-8-7-5-| 
A#|-------------------------------------------------------------------------------------------| 
F#|-------------------------------------------------------------------------------------------| 
C#|-------------------------------------------------------------------------------------------| 
G#|-------------------------------------------------------------------------------------------| 
D#|-------------------------------------------------------------------------------------------| 
 
 
D#|-8-7-5-8-7-5-10-8-7-10-8-12-10-8-14-12-14-12-10-14-15-14-12-15-14-12-17-15-14-17-15-14--| 
A#|----------------------------------------------------------------------------------------| 
F#|----------------------------------------------------------------------------------------| 
C#|----------------------------------------------------------------------------------------| 
G#|----------------------------------------------------------------------------------------| 
D#|----------------------------------------------------------------------------------------| 
 
 
D#|-19-17-15-19-17-15-19-20-19-1720-19-17-20-17-22-19-22b23--------------------------------| 
A#|----------------------------------------------------------------------------------------| 
F#|----------------------------------------------------------------------------------------| 
C#|----------------------------------------------------------------------------------------| 
G#|----------------------------------------------------------------------------------------| 
D#|----------------------------------------------------------------------------------------| 
 
 
D#|-----0-3h4-0---3h4-0---3h4-0---0-----0-----0--------------------------------------------| 
A#|-3h5---------5-------5-------5---3h5---3h5---0-3h4p0---3h4p0---3h4p0-------0-----0------| 
F#|-----------------------------------------------------4-------4-------4-2h4---2h4---2p0--| 
C#|----------------------------------------------------------------------------------------| 
G#|----------------------------------------------------------------------------------------| 
D#|----------------------------------------------------------------------------------------| 
 
 
D#|----------------------------------------------------------------------------------------| 
A#|----------------------------------------------------------------------------------------| 
F#|--4p2p0-4p2p0-4p2p0---0h2p0-----0-------------------------------------------------------| 
C#|--------------------4-------4p2---4p2p0-2p0---2p0---2p0---0-----------------------------| 
G#|--------------------------------------------3-----3-----3---3p2p0---2-0-----------------| 
D#|------------------------------------------------------------------3-----3p2-0~----------| 
 


REFRÃO 
 
D#|-----------------------------------------------------------------------| 
A#|-----------------------------------------------------------------------| 
F#|-----------------------------------------------------------------------| 3X     
C#|----------------2----------5---------5-5-7-4-4-------------------------| 
G#|-2----------2-2-0-5--5-5-5-3-3-3-3-3-3-3-5-2-2-0-----------------------| 
D#|-0--0-0-0-0-0-0---3--3-3-3-----------------------3-2-------------------| 
 
  P.M  . . . .             P.M  . . . .  

 
D#|-----------------------------------------------------------------------| 
A#|-----------------------------------------------------------------------| 
F#|-----------------------------------------------------------------------|     
C#|----------------2----------5---------5-5-7-4-2-------------------------| 
G#|-2----------2-2-0-5--5-5-5-3-3-3-3-3-3-3-5-2-0-5-4---------------------| 
D#|-0--0-0-0-0-0-0---3--3-3-3---------------------3-2---------------------| 
 
  P.M  . . . .             P.M  . . . .  

4ª PARTE 
 
D#|-----------------------------------------------------------------------| 
A#|-----------------------------------------------------------------------| 
F#|-----------------------------------------------------------------------|  3X 
C#|-----------------------------------------------------------------------| 
G#|---------3/4---------5---------7---7-9/10------------------------------| 
D#|-0-0-0-0-1/2-0-0-0-0-3-0-0-0-0-5-0-5-7/8-------------------------------|  
 
P.M . . . .     . . . .   . . . .    . 


 
D#|----------------------------------------------------------------------| 
A#|----------------------------------------------------------------------| 
F#|----------------------------------------------------------------------|  3X 
C#|----------------------------------------------------------------------| 
G#|---------3/4---------5---------7---7-9/10\----------------------------| 
D#|-0-0-0-0-1/2-0-0-0-0-3-0-0-0-0-5-0-5-7/8\-----------------------------|  
 
P.M . . . .     . . . .   . . . .    . 
  

top 5 | slash
top rock'n roll
Outras músicas do artista letras do(a) Slash
Top cifras »Top artistas »
Petaxxon Comunicação Online
Cifras.com.br - Melhor e mais completo site de cifras e tablaturas do Brasil
Mais de 1 milhão de acordes de músicas cadastradas desde 2003
As informações contidas no nosso site são colaborações de seus usuários e podem conter erros, sendo assim, não nos responsabilizamos sobre nenhuma destas.
close
menos
mais
close
Cor dos acordes:

Cor da letra:

 

save
close
close
 
redimensionar