Cifras e Tablaturas
Slayer

Slayer

God Send Death

Cifras Cancelar Versão de Impressão

Slayer - God Send Death

Tom: C#

  			Slayer – God Send Death 
 Tuning C# 
 RIFF 1 INTRO x1 
|KING 
|-----------------------------------|-----------------------------------| 
|-----------------------------------|-----------------------------------| 
|-----------------------------------|-----------------------------------| 
|-----------------------------------|-----------------------------------| 
|-----------------------------------|---------------------------3-3---3-| 
|-----------------------------------|---------------------------1-1---1-| 
|                                                               . .   . 
| 
|HANNEMAN 
|-----------------------------------|-----------------------------------| 
|-----------------------------------|-----------------------------------| 
|-----------------------------------|-----------------------------------| 
|---------------------9---8---------|--------------------10---9---------| 
|-7---7---8--10---7---7---7---8-----|-7---7---8--10---7---7---7-3-3---3-| 
|-0---0---0---0---0---0---0---0-----|-0---0---0---0---0---0---0-1-1---1-| 
                                                                . .   . 


|KING 
|-----------------------------------|-----------------------------------| 
|-----------------------------------|-----------------------------------| 
|-----------------------------------|-----------------------------------| 
|-----------------------------------|-----------------------------------| 
|-2----------------------6--5--3----|-----------------6-5-3-5-610-99-6--| 
|-0----------------------4--3--1----|-----------------4-3-1-3-4-8-77-4--| 
|                               x 
| 
|HANNEMAN 
|-----------------------------------|-----------------------------------| 
|-----------------------------------|-----------------------------------| 
|-----------------------------------|-----------------------------------| 
|---------------------9-------------|-----------------------------------| 
|-2---7---8--10---7---7--6--5--3----|-7---7---8--10---6-5-3-5-610-99-6--| 
|-0---0---0---0---0---0--4--3--1----|-0---0---0---0---4-3-1-3-4-8-77-4--| 
                                x 



 FILL 1 x3 

|KING 
|-------------------------------| 
|-------------------------------| 
|-------------------------------| 
|-------------------------------| 
|-2-2---2-2---2-2---2-2---2-2---| 
|-0-0---0-0---0-0---0-0---0-0---| 
| . .x  . .x  . .x  . .x  . .x 
| 
|HANNEMAN WITH TREMOLO AND FLANGER EFFECTS 
|-------------------------------| 
|-------------------------------| 
|-------------------------------| 
|-------------------------------| 
|-7-----------------------------| 
|-0-----------------------------| 




  


RIFF 2 VERSE x1 
|x2 
|-------------------------------------------------| 
|-------------------------------------------------| 
|-------------------------------------------------| 
|-------------------------9--9--9--9--8--8--------| 
|-7--7--7--7--8--8-10-10--7--7--7--7--7--7--8--8--| 
|-0--0--0--0--0--0--0--0--0--0--0--0--0--0--0--0--| 
  .  .  .  .  .  .  .  .  .  .  .  .  .  .  .  . 


|x1 
|-------------------------------------------------| 
|-------------------------------------------------| 
|-------------------------------------------------| 
|-------------------------9--9--9--9--------------| 
|-7--7--7--7--8--8-10-10--7--7--7--7--8--8-10-10--| 
|-0--0--0--0--0--0--0--0--0--0--0--0--0--0--0--0--| 
  .  .  .  .  .  .  .  .  .  .  .  .  .  .  .  . 



 RIFF 3 Chorus x1 

|-------------------------|-------------------------| 
|-------------------------|-------------------------| 
|-------------------------|-------------------------| 
|-------9^^^^-------------|-------9^^^^-8^^^^-------| 
|-7^^^^-------8^^^^10^^^^-|-7^^^^-------------8^^^^-| 
|---000---000---000---000-|---000---000---000---000-| 
    ...   ...   ...   ...     ...   ...   ...   ... 


|-------------------------|-------------------------| 
|-------------------------|-------------------------| 
|-------------------------|-------------------------| 
|-------9^^^^-------------|------10^^^^-9^^^^-------| 
|-7^^^^-------8^^^^10^^^^-|-7^^^^-------------8-----| 
|---000---000---000---000-|---000---000---000-6-----| 
    ...   ...   ...   ...     ...   ...   ... 



 RIFF 4 BRIDGE x8 

|--------------------------------| 
|--------------------------------| 
|--------------------------------| 
|---------------7-8^^------------| 
|-7---8p7---7---------9-8-5b^^---| 
|-0---0-----0--------------------| 




 RIFF 2 VERSE x1 

 RIFF 3 Chorus x1 

 RIFF 4 BRIDGE x7 


 FILL 2 

|--------------------------------| 
|--------------------------------| 
|--------------------------------| 
|--------------------------------| 
|-7---8p7---7---6---5---3--------| 
|-0---0-----0---4---3---1--------| 
                         x 



 FILL 3 

|KING WITH PHASER EFFECT 
| WAH   WAH   WAH WAH   WAH WAH 
|-------------------------------------| 
|-------------------------------------| 
|-------------------------------------| 
|-------------------------------------| 
|-5-----2-----4---8-----7-------------| 
|-3-----0-----2---6-----5---12\\\\----| 




 RIFF 5 INTERLUDE x4 

|-------------------------------------------------| 
|-------------------------------------------------| 
|-------------------------------------------------| 
|-------------------------------------------------| 
|-5--5--5--2--2--4--4--5--8--8--8--7--7--7--7--7--| 
|-3--3--3--0--0--2--2--3--6--6--6--5--5--5--5--5--| 
  .  .  .  .  .  .  .  .  .  .  .  .  .  .  .  . 



 FILL 3A 

|KING WITH PHASER EFFECT 
| WAH   WAH   WAH WAH   WAH   WAH WAH  WAH   WAH 
|------------------------------------------------------------------| 
|------------------------------------------------------------------| 
|------------------------------------------------------------------| 
|------------------------------------------------------------------| 
|-5-----2-----4---5-----2-----4---5----2-----4---6-5-3-5-610-99-6--| 
|-3-----0-----2---3-----0-----2---3----0-----2---4-3-1-3-4-8-77-4--| 
| 
| 
|HANNEMAN                                        N.H. 
|------------------------------------------------------------------| 
|------------------------------------------------5////////\/\/\\---| 
|------------------------------------------------5////////\/\/\\---| 
|------------------------------------------------------------------| 
|-5-----2-----4---5-----2-----4---5----2-----4---------------------| 
|-3-----0-----2---3-----0-----2---3----0-----2---------------------| 




 SOLO 1 HANNEMAN 
  WAH    WAH      WAH_______________________________________________ 
|-----------------------------------20-21-23-21-20-------------------| 
|-23b^^--23b^^----20-22-23-20-22-23----------------23-22-20-23-22-20-| 
|--------------------------------------------------------------------| 
|--------------------------------------------------------------------| 
|--------------------------------------------------------------------| 
|--------------------------------------------------------------------| 

  WAH____________________________________        WAH______________ 
|----------------------------------------------|-------------------| 
|----------------------------------------------|-------------------| 
|-23-21-20-23-21-20----------------------------|-------------------| 
|-------------------22-20-19-22-20-19-17b^^\\--|-------------------| 
|----------------------------------------------|-------------------| 
|----------------------------------------------|-11-12-14-11-12-14-| 
                                                 .. .. .. .. .. .. 
   

   WAH____________________________________________________________________ 
|-------------------------------------------------------------------------| 
|-------------------------------------------------------14-16-17-14-16-17-| 
|-------------------------------------14-15-17-14-15-17-------------------| 
|-------------------13-14-16-13-14-16-------------------------------------| 
|-12-13-15-12-13-15-------------------------------------------------------| 
|-------------------------------------------------------------------------| 
  .. .. .. .. .. .. 
  WAH__________________________________________        WAH_________________ 
|-14-15-17-15-14-------------------------------------|-15-17-18-17-15-------| 
|----------------17-16-14-17-16-14----------16b^^----|----------------17-16-| 
|----------------------------------17-15-14-15b^^----|----------------------| 
|----------------------------------------------------|----------------------| 
|----------------------------------------------------|----------------------| 
|----------------------------------------------------|----------------------| 

  WAH_______________________________________________________________________ 
|----15-17-18-17-15----------15-17-18-17-15----------15-17-18-17-15----------| 
|-17----------------17-16-17----------------17-16-17----------------17-16-17-| 
|----------------------------------------------------------------------------| 
|----------------------------------------------------------------------------| 
|----------------------------------------------------------------------------| 
|----------------------------------------------------------------------------| 

  WAH_____________________________________________    WAH 
|-15-17-18-17-15----------15-17-18-17-15-------------------------| 
|----------------17-16-17----------------17-16-17b^^--17b^^^^----| 
|----------------------------------------------------------------| 
|----------------------------------------------------------------| 
|----------------------------------------------------------------| 
|----------------------------------------------------------------| 

  WAH____________________________________________________________________ 
|-------------------------------------------------------------------------| 
|-------------------------------------------------------------------------| 
|-------------------------------------------------------------------------| 
|----------------------------13-14-16----------------------------16-17-19-| 
|----------12-13-15-12-13-15-------------------15-16-18-15-16-18----------| 
|-11-12-14----------------------------14-15-17----------------------------| 
  .. .. .. .. .. ..                   .. .. .. .. .. .. 
  WAH_________________________________________________________________ 
|----------------------------17-18-17-18-17----------------------------| 
|-------------------17-19-20----------------20-19-17-20-19-17----------| 
|-17-18-20-17-18-20-------------------------------------------20-18-17-| 
|----------------------------------------------------------------------| 
|----------------------------------------------------------------------| 
|----------------------------------------------------------------------| 

  WAH        WAH & BAR N.H. BAR   N.H. BAR 
|------------------------------------------------| 
|-19b^^^^-------------------------5////\/\/\\----| 
|-18b^^^^----0\\\\\\\\h6///\\\\---5////\/\/\\----| 
|------------------------------------------------| 
|------------------------------------------------| 
|------------------------------------------------| 




 RIFF 6 x4 UNDER SOLO 1 

|-------------------------|-------------------------| 
|-------------------------|-------------------------| 
|-------------------------|-------------------------| 
|-------------------------|-------------------------| 
|-------4-----3-----------|-------------7-----5-----| 
|-2-222---222---222-5-222-|-2-222-6-222-55555-33333-| 
    ...   ...   ...   ...     ...   ...  ....  .... 



 RIFF 7 x3 UNDER SOLO 1 

|-----------------| 
|-----------------| 
|-----------------| 
|-----------------| 
|-----------------| 
|-3-2-0-2-0-2-0-2-| 
  . . . . . . . . 



 SOLO 2 KING 
  WAH____________________________________________________________________ 
|-21-20-18----------20-18-17----------21-20-18----------20-18-17----------| 
|----------20-19-17----------20-19-17----------20-19-17----------20-19-17-| 
|-------------------------------------------------------------------------| 
|-------------------------------------------------------------------------| 
|-------------------------------------------------------------------------| 
|-------------------------------------------------------------------------| 

  WAH____________________________________________________ BAR 
|-21-20-18----------21-20-18-------------------------------------| 
|----------20-19-17----------20-19-17-20-19-17-------------------| 
|----------------------------------------------20-18-17-0\\\\----| 
|----------------------------------------------------------------| 
|----------------------------------------------------------------| 
|----------------------------------------------------------------| 

  WAH____________________________________________________________________ 
|-------------------------------------------------------------------------| 
|-------------------------------------------------------------------------| 
|-------------------------------------------------------14-15-17-14-15-17-| 
|-------------------------------------13-14-16-13-14-16-------------------| 
|-------------------12-13-15-12-13-15-------------------------------------| 
|-11-12-14-11-12-14-------------------------------------------------------| 

  WAH____________________________________________________________________ 
|-------------------14-15-17-14-15-17-15-17-18-15-17-18-17-18-20-17-18-20-| 
|-14-16-17-14-16-17-------------------------------------------------------| 
|-------------------------------------------------------------------------| 
|-------------------------------------------------------------------------| 
|-------------------------------------------------------------------------| 
|-------------------------------------------------------------------------| 

             WAH & BAR      WAH & BAR     WAHBAR WAHBAR WAHBAR WAHBARS.H. BAR 
|-21b^^^^---------------------------------------------------------------------| 
|-----------------------------------------------------------------------------| 
|------------0\\\\//\\\\\\--12//\/\/\/\\--8/\/\\-6/\/\\-5/\/\\-0\\\\h3\\\\\\--| 
|-----------------------------------------------------------------------------| 
|-----------------------------------------------------------------------------| 
|-----------------------------------------------------------------------------| 

RIFF 6A x1 UNDER SOLO 2 

|-------------------------|-------------------------| 
|-------------------------|-------------------------| 
|-------------------------|-------------------------| 
|-------------------------|-------------------------| 
|-------4-----3-----7-----|-4-----8-----7-----5-----| 
|-2-222---222---222-55555-|-22222-66666-55555-33333-| 
    ...   ...   ...  ....    ....  ....  ....  .... 


|-------------------------|-------------------------| 
|-------------------------|-------------------------| 
|-------------------------|-------------------------| 
|-------------------------|-------------------------| 
|-------4-----3-----7-----|-4-----8-----7-----5-----| 
|-2-222---222---222-55555-|-22222-66666-55555-3-----| 
    ...   ...   ...  ....    ....  ....  .... 



 RIFF 7 x4 UNDER SOLO 2 


 SOLO 3 HANNEMAN 

|OVER SOLO 2 | 
| N.H.       |                   WAH_________________________________________ 
|------------|-23b^^--23b^^^^----20-21-20-21-23-21-20----------17-18-17-18-20-| 
|------------|----------------------------------------23-22-20----------------| 
|-3^^^^^^----|----------------------------------------------------------------| 
|------------|----------------------------------------------------------------| 
|------------|----------------------------------------------------------------| 
|------------|----------------------------------------------------------------| 

  WAH_______________________________________________________________ 
|-18-17-----------------------------------------------------------------| 
|-------20-19-17-20-19-17-----------------------------------------------| 
|-------------------------20-18-17-20-18-17----------------17-18-20b^^--| 
|-------------------------------------------19-17-16-17-19--------------| 
|-----------------------------------------------------------------------| 
|-----------------------------------------------------------------------| 

  WAH & BAR N.H. BAR 
|-------------------------------| 
|-------------------------------| 
|-0\\\\\\\\h3\\\////\\\\\\\\----| 
|-------------------------------| 
|-------------------------------| 
|-------------------------------| 



 RIFF 6B x1 UNDER SOLO 3 

|-------------------------|-------------------------| 
|-------------------------|-------------------------| 
|-------------------------|-------------------------| 
|-------------------------|-------------------------| 
|-------4-----3-----------|-------------7-----------| 
|-2-222---222---222-5-222-|-2-222-6-222-55555-3b^^^-| 
    ...   ...   ...   ...     ...   ...  .... 


 RIFF 7 x3 UNDER SOLO 3 
 SOLO 4 KING 
  WAH______________________________________________________________ 
|-------------------------------------------------------------------| 
|-------------------------------------------------------------------| 
|-8-11-8-11-8-11-9-12-9-12-9-12-10-13-10-13-10-13-11-14-11-14-11-14-| 
|-------------------------------------------------------------------| 
|-------------------------------------------------------------------| 
|-------------------------------------------------------------------| 


|-------------------------------------------------------------| 
|-------------------------------------------------------------| 
|-12-15-13-16-14-17-15-18-16-19-17-20-18-21-19-22-20-23-21-24-| 
|-------------------------------------------------------------| 
|-------------------------------------------------------------| 
|-------------------------------------------------------------| 
|OVER Chorus 
| WAH & BAR                     WAH________ 
|----------------------------------------------| 
|----------------------------------------------| 
|-0\\\\DEPRESS GRADUALLY\\\\-------------------| 
|----------------------------------------------| 
|-------------------------------15///21\\\7----| 
|----------------------------------------------| 
                                           x 



 RIFF 6C UNDER SOLO 4 

|-------------------------|-------------------------| 
|-------------------------|-------------------------| 
|-------------------------|-------------------------| 
|-------------------------|-------------------------| 
|-------4-----3-----7-----|-4-----8-----7-----5-----| 
|-2-222---222---222-55555-|-22222-66666-55555-33333-| 
    ...   ...   ...  ....    ....  ....  ....  .... 



 RIFF 3A Chorus x1 

|-------------------------|-------------------------| 
|-------------------------|-------------------------| 
|-------------------------|-------------------------| 
|-------9^^^^-------------|-------9^^^^-8^^^^-------| 
|-7^^^^-------8^^^^10^^^^-|-7^^^^-------------8^^^^-| 
|---000---000---000---000-|---000---000---000---000-| 
    ...   ...   ...   ...     ...   ...   ...   ... 


|-------------------------|-------------------------| 
|-------------------------|-------------------------| 
|-------------------------|-------------------------| 
|-------9^^^^-------------|-------------------------| 
|-7^^^^-------8^^^^10^^^^-|-8---8---8---8---8---8---| 
|---000---000---000---000-|-6---6---6---6---6---6---| 
    ...   ...   ...   ... 



 RIFF 3 Chorus x1 

 RIFF 4 BRIDGE x3 

 FILL 2 END 
    	
fixar
fixar inscrever-se

enviado porenviado por: So_What
cifra enviadaCorrigida por: sem correções
logo top cifrasComente
ico música do artistaMúsicas deste artista
ico curtiuCurtiu?
ico destaqueDestaque
Petaxxon Comunicação Online

Cifras.com.br - Melhor e mais completo site de cifras e tablaturas do Brasil Mais de 1 milhão de acordes de músicas cadastradas desde 2003
As informações contidas no nosso site são colaborações de seus usuários e podem conter erros, sendo assim, não nos responsabilizamos sobre nenhuma destas.

close
menos
mais
close
Cor dos acordes:

Cor da letra:

close
Alinhar acordes a direita Alinhar acordes a esquerda Alinhar acordes em baixo Alinhar acordes no topo
close
  Mostrar todos os acordes Esconder acordes muito fáceis Esconder acordes fáceis Esconder acordes intermediários
redimensionar
glossário