Cifras e Tablaturas
Small Town Heroes

Small Town Heroes

Get Up Get Out

Cifras Cancelar Versão de Impressão
cifras

Small Town Heroes - Get Up Get Out

fixar na tela  
Exibindo: vídeo-aula ver clipes redimensionar
  
Intro 

D#|-------------------------------------------------------------| 
A#|-------------------------------------------------------------| 
F#|------------------------------9--9-9-9-9-9-9-9-9-9-9-9-9-9-9-| 
C#|4--4-4-4-4-4-4-7--7-7-7-7-7-7-9--9-9-9-9-9-9-9-9-9-9-9-9-9-9-| 
G#|4--4-4-4-4-4-4-7--7-7-7-7-7-7-7--7-7-7-7-7-7-7-7-7-7-7-7-7-7-| 
C#|4--4-4-4-4-4-4-7--7-7-7-7-7-7--------------------------------| 

D#|-------------------------------------------------------------| 
A#|-------------------------------------------------------------| 
F#|--------------------------------6-6--6-6-6--6-6-6--6-7-7-6-6-| 
C#|4--4-4-4-4-4-4-7--7-7-7-7-7-7-7-6-6--6-6-6--6-6-6--6-7-7-6-6-| 
G#|4--4-4-4-4-4-4-7--7-7-7-7-7-7-7-4-4--4-4-4--4-4-4--4-5-5-4-4-| 
C#|4--4-4-4-4-4-4-7--7-7-7-7-7-7-7------------------------------| 


verse 1 

   PM-------------------------------------------------------------| 
D#|----------------------------------------------------------------| 
A#|----------------------------------------------------------------| 
F#|----------------------------------------------------------------| 
C#|------------------------------------------------9-9-9-9---------| 
G#|4-4-4-4-4-4-4-4-7-7-7-7-7-7-7-7-9-9-9-9-9-9-9-9-7-7-7-7-9-9-9-9-| 
C#|4-4-4-4-4-4-4-4-7-7-7-7-7-7-7-7-9-9-9-9-9-9-9-9---------9-9-9-9-| 
    
PM----------------------------------------------------------------| 
D#|----------------------------------------------------------------| 
A#|----------------------------------------------------------------| 
F#|----------------------------------------------------------------| 
C#|------------------------------------------------9-9-9-9---------| 
G#|4-4-4-4-4-4-4-4-7-7-7-7-7-7-7-7-9-9-9-9-9-9-9-9-7-7-7-7-9-9-9-9-| 
C#|4-4-4-4-4-4-4-4-7-7-7-7-7-7-7-7-9-9-9-9-9-9-9-9---------9-9-9-9-| 

   PM-------------------------------------------------------------| 
D#|----------------------------------------------------------------| 
A#|----------------------------------------------------------------| 
F#|----------------------------------------------------------------| 
C#|------------------------------------------------9-9-9-9---------| 
G#|4-4-4-4-4-4-4-4-7-7-7-7-7-7-7-7-9-9-9-9-9-9-9-9-7-7-7-7-9-9-9-9-| 
C#|4-4-4-4-4-4-4-4-7-7-7-7-7-7-7-7-9-9-9-9-9-9-9-9---------9-9-9-9-| 
    
PM---------------------------------------------------------------| 
D#|---------------------------------------------------------------| 
A#|---------------------------------------------------------------| 
F#|---------------------------------------------------------------| 
C#|------------------------------------------------9-9-9-9--------| 
G#|4-4-4-4-4-4-4-4-7-7-7-7-7-7-7-7-9-9-9-9-9-9-9-9-7-7-7-7-9-9-9--| 
C#|4-4-4-4-4-4-4-4-7-7-7-7-7-7-7-7-9-9-9-9-9-9-9-9---------9-9-9--| 


Chorus 

D#|--------------------------------------------------------------| 
A#|--------------------------------------------------------------| 
F#|-------------------------------9--9-9-9-9-9-9-9-9-9-9-9-9-9-9-| 
C#|4--4-4-4-4-4-4-4-7-7-7-7-7-7-7-9--9-9-9-9-9-9-9-9-9-9-9-9-9-9-| 
G#|4--4-4-4-4-4-4-4-7-7-7-7-7-7-7-7--7-7-7-7-7-7-7-7-7-7-7-7-7-7-| 
C#|4--4-4-4-4-4-4-4-7-7-7-7-7-7-7--------------------------------| 

D#|--------------------------------------------------------------| 
A#|--------------------------------------------------------------| 
F#|-------------------------------9--9-9-9-9-9-9-9-9-9-9-9-9-9-9-| 
C#|4--4-4-4-4-4-4-4-7-7-7-7-7-7-7-9--9-9-9-9-9-9-9-9-9-9-9-9-9-9-| 
G#|4--4-4-4-4-4-4-4-7-7-7-7-7-7-7-7--7-7-7-7-7-7-7-7-7-7-7-7-7-7-| 
C#|4--4-4-4-4-4-4-4-7-7-7-7-7-7-7--------------------------------| 

D#|----------------------------------------------------------------| 
A#|----------------------------------------------------------------| 
F#|-------------------------------9--9-9-9-9-9-9-9-9-9-9-9-9-9-9-9-| 
C#|4--4-4-4-4-4-4-4-7-7-7-7-7-7-7-9--9-9-9-9-9-9-9-9-9-9-9-9-9-9-9-| 
G#|4--4-4-4-4-4-4-4-7-7-7-7-7-7-7-7--7-7-7-7-7-7-7-7-7-7-7-7-7-7-7-| 
C#|4--4-4-4-4-4-4-4-7-7-7-7-7-7-7----------------------------------| 

D#|-------------------------------------------------------| 
A#|-------------------------------------------------------| 
F#|7-7--7-7-7--7-7-7--7-7-7-7-7-9-9-9-9-9-9-9-9-9\--------| 
C#|7-7--7-7-7--7-7-7--7-7-7-7-7-9-9-9-9-9-9-9-9-9\--------| 
G#|5-5--5-5-5--5-5-5--5-5-5-5-5-7-7-7-7-7-7-7-7-7\--------| 
C#|-------------------------------------------------------| 


Interlude 

D#|-------------------------------------------------------------| 
A#|-------------------------------------------------------------| 
F#|------------------------------9--9-9-9-9-9-9-9-9-9-9-9-x-x-x-| 
C#|4--4-4-4-4-4-4-7--7-7-7-7-7-7-9--9-9-9-9-9-9-9-9-9-9-9-x-x-x-| 
G#|4--4-4-4-4-4-4-7--7-7-7-7-7-7-7--7-7-7-7-7-7-7-7-7-7-7-x-x-x-| 
C#|4--4-4-4-4-4-4-7--7-7-7-7-7-7--------------------------------| 

D#|-------------------------------------------------------------| 
A#|-------------------------------------------------------------| 
F#|--------------------------------6-6--6-6-6--6-6-6--6-7-7-6-6-| 
C#|4--4-4-4-4-4-4-7--7-7-7-7-7-7-7-6-6--6-6-6--6-6-6--6-7-7-6-6-| 
G#|4--4-4-4-4-4-4-7--7-7-7-7-7-7-7-4-4--4-4-4--4-4-4--4-5-5-4-4-| 
C#|4--4-4-4-4-4-4-7--7-7-7-7-7-7-7------------------------------| 


verse 2 
   
 PM-------------------------------------------------------------| 
D#|----------------------------------------------------------------| 
A#|----------------------------------------------------------------| 
F#|----------------------------------------------------------------| 
C#|------------------------------------------------9-9-9-9---------| 
G#|4-4-4-4-4-4-4-4-7-7-7-7-7-7-7-7-9-9-9-9-9-9-9-9-7-7-7-7-9-9-9-9-| 
C#|4-4-4-4-4-4-4-4-7-7-7-7-7-7-7-7-9-9-9-9-9-9-9-9---------9-9-9-9-| 
    
PM----------------------------------------------------------------| 
D#|----------------------------------------------------------------| 
A#|----------------------------------------------------------------| 
F#|----------------------------------------------------------------| 
C#|------------------------------------------------9-9-9-9---------| 
G#|4-4-4-4-4-4-4-4-7-7-7-7-7-7-7-7-9-9-9-9-9-9-9-9-7-7-7-7-9-9-9-9-| 
C#|4-4-4-4-4-4-4-4-7-7-7-7-7-7-7-7-9-9-9-9-9-9-9-9---------9-9-9-9-| 

   PM-------------------------------------------------------------| 
D#|----------------------------------------------------------------| 
A#|----------------------------------------------------------------| 
F#|----------------------------------------------------------------| 
C#|------------------------------------------------9-9-9-9---------| 
G#|4-4-4-4-4-4-4-4-7-7-7-7-7-7-7-7-9-9-9-9-9-9-9-9-7-7-7-7-9-9-9-9-| 
C#|4-4-4-4-4-4-4-4-7-7-7-7-7-7-7-7-9-9-9-9-9-9-9-9---------9-9-9-9-| 
    
PM----------------------------------------------------------------| 
D#|----------------------------------------------------------------| 
A#|----------------------------------------------------------------| 
F#|----------------------------------------------------------------| 
C#|------------------------------------------------9-9-9-9---------| 
G#|4-4-4-4-4-4-4-4-7-7-7-7-7-7-7-7-9-9-9-9-9-9-9-9-7-7-7-7-9-9-9-9-| 
C#|4-4-4-4-4-4-4-4-7-7-7-7-7-7-7-7-9-9-9-9-9-9-9-9---------9-9-9-9-| 

D#|-----------------------------------| 
A#|-----------------------------------| 
F#|-----------------------------------| 
C#|4----------------2------------x-x--| 
G#|4----------------2------------x-x--| 
C#|4----------------2------------x-x--| 


Chorus 

D#|--------------------------------------------------------------| 
A#|--------------------------------------------------------------| 
F#|-------------------------------9--9-9-9-9-9-9-9-9-9-9-9-9-9-9-| 
C#|4--4-4-4-4-4-4-4-7-7-7-7-7-7-7-9--9-9-9-9-9-9-9-9-9-9-9-9-9-9-| 
G#|4--4-4-4-4-4-4-4-7-7-7-7-7-7-7-7--7-7-7-7-7-7-7-7-7-7-7-7-7-7-| 
C#|4--4-4-4-4-4-4-4-7-7-7-7-7-7-7--------------------------------| 

D#|--------------------------------------------------------------| 
A#|--------------------------------------------------------------| 
F#|-------------------------------9--9-9-9-9-9-9-9-9-9-9-9-9-9-9-| 
C#|4--4-4-4-4-4-4-4-7-7-7-7-7-7-7-9--9-9-9-9-9-9-9-9-9-9-9-9-9-9-| 
G#|4--4-4-4-4-4-4-4-7-7-7-7-7-7-7-7--7-7-7-7-7-7-7-7-7-7-7-7-7-7-| 
C#|4--4-4-4-4-4-4-4-7-7-7-7-7-7-7--------------------------------| 

D#|----------------------------------------------------------------| 
A#|----------------------------------------------------------------| 
F#|-------------------------------9--9-9-9-9-9-9-9-9-9-9-9-9-9-9-9-| 
C#|4--4-4-4-4-4-4-4-7-7-7-7-7-7-7-9--9-9-9-9-9-9-9-9-9-9-9-9-9-9-9-| 
G#|4--4-4-4-4-4-4-4-7-7-7-7-7-7-7-7--7-7-7-7-7-7-7-7-7-7-7-7-7-7-7-| 
C#|4--4-4-4-4-4-4-4-7-7-7-7-7-7-7----------------------------------| 

D#|-------------------------------------------------------------| 
A#|-------------------------------------------------------------| 
F#|7-7--7-7-7--7-7-7--7-7-7-7-7-9-9-9-9-9-9-9-9-9-9-9-9-9-9-9-9-| 
C#|7-7--7-7-7--7-7-7--7-7-7-7-7-9-9-9-9-9-9-9-9-9-9-9-9-9-9-9-9-| 
G#|5-5--5-5-5--5-5-5--5-5-5-5-5-7-7-7-7-7-7-7-7-7-7-7-7-7-7-7-7-| 
C#|-------------------------------------------------------------| 


Bridge 

D#|-------------------------------------------------------------| 
A#|-------------------------------------------------------------| 
F#|11---11-11-6-6---4-4-4-6-7-6-6-11---11-11-6-6---4-4-4-4-6-6--| 
C#|11---11-11-6-6---4-4-4-6-7-6-6-11---11-11-6-6---4-4-4-4-6-6--| 
G#|9----9--9--4-4---2-2-2-4-5-4-4-9----9--9--4-4---2-2-2-2-4-4--| 
C#|-------------------------------------------------------------| 

D#|-------------------------------------------------------------| 
A#|-------------------------------------------------------------| 
F#|11---11-11-6-6---4-4-4-6-7-6-6-11---11-11-6-6---4-4-4-4-6-6--| 
C#|11---11-11-6-6---4-4-4-6-7-6-6-11---11-11-6-6---4-4-4-4-6-6--| 
G#|9----9--9--4-4---2-2-2-4-5-4-4-9----9--9--4-4---2-2-2-2-4-4--| 
C#|-------------------------------------------------------------| 

D#|---------------------------------| 
A#|---------------------------------| 
F#|6----------------4---------------| 
C#|6----------------4---------------| 
G#|4----------------2---------------| 
C#|---------------------------------| 


Chorus 

D#|--------------------------------------------------------------| 
A#|--------------------------------------------------------------| 
F#|-------------------------------9--9-9-9-9-9-9-9-9-9-9-9-9-9-9-| 
C#|4--4-4-4-4-4-4-4-7-7-7-7-7-7-7-9--9-9-9-9-9-9-9-9-9-9-9-9-9-9-| 
G#|4--4-4-4-4-4-4-4-7-7-7-7-7-7-7-7--7-7-7-7-7-7-7-7-7-7-7-7-7-7-| 
C#|4--4-4-4-4-4-4-4-7-7-7-7-7-7-7--------------------------------| 

D#|--------------------------------------------------------------| 
A#|--------------------------------------------------------------| 
F#|-------------------------------9--9-9-9-9-9-9-9-9-9-9-9-9-9-9-| 
C#|4--4-4-4-4-4-4-4-7-7-7-7-7-7-7-9--9-9-9-9-9-9-9-9-9-9-9-9-9-9-| 
G#|4--4-4-4-4-4-4-4-7-7-7-7-7-7-7-7--7-7-7-7-7-7-7-7-7-7-7-7-7-7-| 
C#|4--4-4-4-4-4-4-4-7-7-7-7-7-7-7--------------------------------| 

D#|----------------------------------------------------------------| 
A#|----------------------------------------------------------------| 
F#|-------------------------------9--9-9-9-9-9-9-9-9-9-9-9-9-9-9-9-| 
C#|4--4-4-4-4-4-4-4-7-7-7-7-7-7-7-9--9-9-9-9-9-9-9-9-9-9-9-9-9-9-9-| 
G#|4--4-4-4-4-4-4-4-7-7-7-7-7-7-7-7--7-7-7-7-7-7-7-7-7-7-7-7-7-7-7-| 
C#|4--4-4-4-4-4-4-4-7-7-7-7-7-7-7----------------------------------| 

D#|-------------------------------------------------------| 
A#|-------------------------------------------------------| 
F#|7-7--7-7-7--7-7-7--7-7-7-7-7-9-9-9-9-9-9-9-9-9\--------| 
C#|7-7--7-7-7--7-7-7--7-7-7-7-7-9-9-9-9-9-9-9-9-9\--------| 
G#|5-5--5-5-5--5-5-5--5-5-5-5-5-7-7-7-7-7-7-7-7-7\--------| 
C#|-------------------------------------------------------| 

D#|----------------------------------| 
A#|----------------------------------| 
F#|----------------------------------| 
C#|4---------------------------------| 
G#|4---------------------------------| 
C#|4---------------------------------| 


************************************ 

| x   Dead note 
| \   Slide down 
| PM  Palm mute 

************************************ 
  

top 5 | small town heroes
top rock'n roll
Outras músicas do artista letras do(a) Small Town Heroes
Top cifras »Top artistas »
Petaxxon Comunicação Online
Cifras.com.br - Melhor e mais completo site de cifras e tablaturas do Brasil
Mais de 1 milhão de acordes de músicas cadastradas desde 2003
As informações contidas no nosso site são colaborações de seus usuários e podem conter erros, sendo assim, não nos responsabilizamos sobre nenhuma destas.
close
menos
mais
close
Cor dos acordes:

Cor da letra:

 

save
close
close
 
redimensionar