Cifras e Tablaturas
Small Town Heroes

Small Town Heroes

Lost In Time

Cifras Cancelar Versão de Impressão
cifras

Small Town Heroes - Lost In Time

fixar na tela  
Exibindo: vídeo-aula ver clipes redimensionar
  Intro 

D#|x---x-x-x-x-----x-x-x-x-x-x-x-x---x--x-x-----x--x-x-x-x-x-| 
A#|1---1-x-x-1-----1-1-1-1-1-1-1-1---1--1-1-----1--1-1-1-1-1-| 
F#|2---2-x-x-2-p0--0-0-0-0-0-0-0-0---0--0-0-----0--0-0-0-0-0-| 
C#|3---3-x-x-3-----3-3-3-3-2-2-0-0---0--0-0-h2--2--2-2-2-2-2-| 
G#|3---3-x-x-3-----3-3-3-3-3-3-3-3---3--3-3-----3--3-3-3-3-3-| 
C#|x---x-x-x-x-----x-x-x-x-x-x-x-x---x--x-x-----x--x-x-x-x-x-| 

D#|x---x-x-x-x-----x-x-x-x-x-x-x-x---x-x--x-x-x-x-x-x-x-x-x-x-| 
A#|1---1-x-x-1-----1-1-1-1-1-1-1-1---1-1--1-1-1-1-1-1-1-1-1-1-| 
F#|2---2-x-x-2-p0--0-0-0-0-0-0-0-0---0-0--0-0-0-0-0-0-0-0-0-0-| 
C#|3---3-x-x-3-----3-3-3-3-2-2-0-0---0-0--0-0-0-0-0-0-0-0-0-0-| 
G#|3---3-x-x-3-----3-3-3-3-3-3-3-3---3-3--3-3-3-2-2-2-2-2-2-2-| 
C#|x---x-x-x-x-----x-x-x-x-x-x-x-x---x-x--x-x-x-x-x-x-x-x-x-x-| 


verse 1 

D#|x----------------x----------------x-----x--x-x----------x---x--x-x---x--x-x-x-x-x-| 
A#|1----------------1----------------1-----1--1-1----------1---1--1-1---1--1-1-1-1-1-| 
F#|0----------------0----------------0-----0--0-0----------0---0--0-0---0--0-0-0-0-0-| 
C#|2----------------0----------------0-h2--2--2-2----------3---3--3-3---3--3-3-3-3-3-| 
G#|3----------------2----------------0-----0--0-0----------3---3--3-3---3--3-3-3-3-3-| 
C#|x----------------x----------------x-----x--x-x----------x---x--x-x---x--x-x-x-x-x-| 

D#|x-----x--x-x----------x---x--x-x----------x--x-x-x-----x--x-x------x--x-x-x---x--x-x------------| 
A#|1-----1--1-1----------1---1--1-1----------1--1-1-1-----1--1-1------1--1-1-1---1--1-1------------| 
F#|0-----0--0-0----------0---0--0-0----------0--0-0-0-----0--0-0------0--0-0-0---0--0-0------------| 
C#|0-h2--2--2-2----------0---0--0-0----------0--0-0-0-h2--2--2-2------2--2-2-3---3--3-3------------| 
G#|3-----3--3-3----------2---2--2-2----------2--2-2-0-----0--0-0------0--0-0-3---3--3-3------------| 
C#|x-----x--x-x----------x---x--x-x----------x--x-x-x-----x--x-x------x--x-x-x---x--x-x------------| 


Chorus 

D#|x---x-x-x-x-----x-x-x-x-x-x-x-x---x--x-x-----x--x-x-x-x-x-| 
A#|1---1-x-x-1-----1-1-1-1-1-1-1-1---1--1-1-----1--1-1-1-1-1-| 
F#|2---2-x-x-2-p0--0-0-0-0-0-0-0-0---0--0-0-----0--0-0-0-0-0-| 
C#|3---3-x-x-3-----3-3-3-3-2-2-0-0---0--0-0-h2--2--2-2-2-2-2-| 
G#|3---3-x-x-3-----3-3-3-3-3-3-3-3---3--3-3-----3--3-3-3-3-3-| 
C#|x---x-x-x-x-----x-x-x-x-x-x-x-x---x--x-x-----x--x-x-x-x-x-| 

D#|x---x-x-x-x-----x-x-x-x-x-x-x-x---x-x--x-x-x-x-x-x-x-x-x-x-| 
A#|1---1-x-x-1-----1-1-1-1-1-1-1-1---1-1--1-1-1-1-1-1-1-1-1-1-| 
F#|2---2-x-x-2-p0--0-0-0-0-0-0-0-0---0-0--0-0-0-0-0-0-0-0-0-0-| 
C#|3---3-x-x-3-----3-3-3-3-2-2-0-0---0-0--0-0-0-0-0-0-0-0-0-0-| 
G#|3---3-x-x-3-----3-3-3-3-3-3-3-3---3-3--3-3-3-2-2-2-2-2-2-2-| 
C#|x---x-x-x-x-----x-x-x-x-x-x-x-x---x-x--x-x-x-x-x-x-x-x-x-x-| 

D#|x-x-x-x--x--x--x-x-x-x-x-x-x-x---x--x-x-----x--x-x-x-x-x-| 
A#|1-1-1-1--1--1--1-1-1-1-1-1-1-1---1--1-1-----1--1-1-1-1-1-| 
F#|0-0-0-0--0--0--0-0-0-0-0-0-0-0---0--0-0-----0--0-0-0-0-0-| 
C#|3-3-3-3--3--3--3-3-3-3-2-2-0-0---0--0-0-h2--2--2-2-2-2-2-| 
G#|3-3-3-3--3--3--3-3-3-3-3-3-3-3---3--3-0-----0--0-0-0-0-0-| 
C#|x-x-x-x--x--x--x-x-x-x-x-x-x-x---x--x-x-----x--x-x-x-x-x-| 

D#|x---x-x-x-x-----x-x-x-x-x-x-x-x---x-x--x-x-x-x-x-x-x-x-x-x-| 
A#|1---1-x-x-1-----1-1-1-1-1-1-1-1---1-1--1-1-1-1-1-1-1-1-1-1-| 
F#|2---2-x-x-2-p0--0-0-0-0-0-0-0-0---0-0--0-0-0-0-0-0-0-0-0-0-| 
C#|3---3-x-x-3-----3-3-3-3-2-2-0-0---0-0--0-0-0-0-0-0-0-0-0-0-| 
G#|3---3-x-x-3-----3-3-3-3-3-3-3-3---3-3--3-3-3-2-2-2-2-2-2-2-| 
C#|x---x-x-x-x-----x-x-x-x-x-x-x-x---x-x--x-x-x-x-x-x-x-x-x-x-| 


Interlude 

D#|x---x-x-x-x-----x-x-x-x-x-x-x-x---x--x-x-----x--x-x-x-x-x-| 
A#|1---1-x-x-1-----1-1-1-1-1-1-1-1---1--1-1-----1--1-1-1-1-1-| 
F#|2---2-x-x-2-p0--0-0-0-0-0-0-0-0---0--0-0-----0--0-0-0-0-0-| 
C#|3---3-x-x-3-----3-3-3-3-2-2-0-0---0--0-0-h2--2--2-2-2-2-2-| 
G#|3---3-x-x-3-----3-3-3-3-3-3-3-3---3--3-3-----3--3-3-3-3-3-| 
C#|x---x-x-x-x-----x-x-x-x-x-x-x-x---x--x-x-----x--x-x-x-x-x-| 

D#|x---x-x-x-x-----x-x-x-x-x-x-x-x---x-x--x-x-x-x-x-x-x-x-x-x-| 
A#|1---1-x-x-1-----1-1-1-1-1-1-1-1---1-1--1-1-1-1-1-1-1-1-1-1-| 
F#|2---2-x-x-2-p0--0-0-0-0-0-0-0-0---0-0--0-0-0-0-0-0-0-0-0-0-| 
C#|3---3-x-x-3-----3-3-3-3-2-2-0-0---0-0--0-0-0-0-0-0-0-0-0-0-| 
G#|3---3-x-x-3-----3-3-3-3-3-3-3-3---3-3--3-3-3-2-2-2-2-2-2-2-| 
C#|x---x-x-x-x-----x-x-x-x-x-x-x-x---x-x--x-x-x-x-x-x-x-x-x-x-| 


verse 1 

D#|x-x-x-x--x--x--x--x-x-x-x-x--x--x-x--x-x--x-x-x-x-x-x-x-| 
A#|1-1-1-1--1--1--1--1-1-1-1-1--1--1-1--1-1--1-1-1-1-1-1-1-| 
F#|0-0-0-0--0--0--0--0-0-0-0-0--0--0-0--0-0--0-0-0-0-0-0-0-| 
C#|3-3-3-3--3--3--3--3-3-3-3-3--3--3-3--3-3--3-3-3-3-3-3-3-| 
G#|3-3-3-3--3--3--3--3-3-3-3-3--3--3-3--3-3--3-3-3-3-3-3-3-| 
C#|x-x-x-x--x--x--x--x-x-x-x-x--x--x-x--x-x--x-x-x-x-x-x-x-| 

D#|x--x-x-x--x-x--x-x-x-x-x-x-x-x--x-x-x--x-x---x-x-x-x-x-x-x-| 
A#|1--1-1-1--1-1--1-1-1-1-1-1-1-1--1-1-1--1-1---1-1-1-1-1-1-1-| 
F#|0--0-0-0--0-0--0-0-0-0-0-0-0-0--0-0-0--0-0---0-0-0-0-0-0-0-| 
C#|0--0-0-0--0-0--0-0-0-0-0-0-0-0--0-0-0--0-0---0-0-0-0-0-0-0-| 
G#|2--2-2-2--2-2--2-2-2-2-2-2-2-2--2-2-2--2-2---2-2-2-2-2-2-2-| 
C#|x--x-x-x--x-x--x-x-x-x-x-x-x-x--x-x-x--x-x---x-x-x-x-x-x-x-| 

D#|x--x-x-x--x-x--x-x-x-x-x-x-x-x--x-x-x--x-x---x-x-x-x-x-x-x-| 
A#|1--1-1-1--1-1--1-1-1-1-1-1-1-1--1-1-1--1-1---1-1-1-1-1-1-1-| 
F#|0--0-0-0--0-0--0-0-0-0-0-0-0-0--0-0-0--0-0---0-0-0-0-0-0-0-| 
C#|3--3-3-3--3-3--3-3-3-3-3-3-3-3--3-3-3--3-3---3-3-3-3-3-3-3-| 
G#|3--3-3-3--3-3--3-3-3-3-3-3-3-3--3-3-3--3-3---3-3-3-3-3-3-3-| 
C#|x--x-x-x--x-x--x-x-x-x-x-x-x-x--x-x-x--x-x---x-x-x-x-x-x-x-| 

D#|x--x-x-x--x-x--x-x-x-x-x-x-x-x--x--x-x-x---x-x-x-x-x-x-x-| 
A#|1--1-1-1--1-1--1-1-1-1-1-1-1-1--1--1-1-1---1-1-1-1-1-1-1-| 
F#|0--0-0-0--0-0--0-0-0-0-0-0-0-0--0--0-0-0---0-0-0-0-0-0-0-| 
C#|0--0-0-0--0-0--0-0-0-0-0-0-0-3--3--3-3-0---0-0-0-0-0-0-0-| 
G#|x--x-x-x--x-x--x-x-x-x-x-x-x-3--3--3-3-2---2-2-2-2-2-2-2-| 
C#|2--2-2-2--2-2--2-2-2-2-2-2-2-x--x--x-x-x---x-x-x-x-x-x-x-| 


Chorus 

D#|x---x-x-x-x-----x-x-x-x-x-x-x-x---x--x-x-----x--x-x-x-x-x-| 
A#|1---1-x-x-1-----1-1-1-1-1-1-1-1---1--1-1-----1--1-1-1-1-1-| 
F#|2---2-x-x-2-p0--0-0-0-0-0-0-0-0---0--0-0-----0--0-0-0-0-0-| 
C#|3---3-x-x-3-----3-3-3-3-2-2-0-0---0--0-0-h2--2--2-2-2-2-2-| 
G#|3---3-x-x-3-----3-3-3-3-3-3-3-3---3--3-3-----3--3-3-3-3-3-| 
C#|x---x-x-x-x-----x-x-x-x-x-x-x-x---x--x-x-----x--x-x-x-x-x-| 

D#|x---x-x-x-x-----x-x-x-x-x-x-x-x---x-x--x-x-x-x-x-x-x-x-x-x-| 
A#|1---1-x-x-1-----1-1-1-1-1-1-1-1---1-1--1-1-1-1-1-1-1-1-1-1-| 
F#|2---2-x-x-2-p0--0-0-0-0-0-0-0-0---0-0--0-0-0-0-0-0-0-0-0-0-| 
C#|3---3-x-x-3-----3-3-3-3-2-2-0-0---0-0--0-0-0-0-0-0-0-0-0-0-| 
G#|3---3-x-x-3-----3-3-3-3-3-3-3-3---3-3--3-3-3-2-2-2-2-2-2-2-| 
C#|x---x-x-x-x-----x-x-x-x-x-x-x-x---x-x--x-x-x-x-x-x-x-x-x-x-| 

D#|x-x-x-x--x--x--x-x-x-x-x-x-x-x---x--x-x-----x--x-x-x-x-x-| 
A#|1-1-1-1--1--1--1-1-1-1-1-1-1-1---1--1-1-----1--1-1-1-1-1-| 
F#|0-0-0-0--0--0--0-0-0-0-0-0-0-0---0--0-0-----0--0-0-0-0-0-| 
C#|3-3-3-3--3--3--3-3-3-3-2-2-0-0---0--0-0-h2--2--2-2-2-2-2-| 
G#|3-3-3-3--3--3--3-3-3-3-3-3-3-3---3--3-0-----0--0-0-0-0-0-| 
C#|x-x-x-x--x--x--x-x-x-x-x-x-x-x---x--x-x-----x--x-x-x-x-x-| 

D#|x---x-x-x-x-----x-x-x-x-x-x-x-x---x-x--x-x-x-x-x-x-x-x-x-x-| 
A#|1---1-x-x-1-----1-1-1-1-1-1-1-1---1-1--1-1-1-1-1-1-1-1-1-1-| 
F#|2---2-x-x-2-p0--0-0-0-0-0-0-0-0---0-0--0-0-0-0-0-0-0-0-0-0-| 
C#|3---3-x-x-3-----3-3-3-3-2-2-0-0---0-0--0-0-0-0-0-0-0-0-0-0-| 
G#|3---3-x-x-3-----3-3-3-3-3-3-3-3---3-3--3-3-3-2-2-2-2-2-2-2-| 
C#|x---x-x-x-x-----x-x-x-x-x-x-x-x---x-x--x-x-x-x-x-x-x-x-x-x-| 


Bridge 

D#|x--x-x-x-x-x--x-x-x-x-x-x-x-x--x--x-x-x-x-x--x-x-x-x-x-x-x-x-| 
A#|1--1-1-1-1-1--1-1-1-1-1-1-1-1--1--1-1-1-1-1--1-1-1-1-1-1-1-1-| 
F#|0--0-0-0-0-0--0-0-0-0-0-0-0-0--0--0-0-0-0-0--0-0-0-0-0-0-0-0-| 
C#|3--3-3-3-3-3--3-3-3-3-3-3-3-3--0--0-0-0-0-0--0-0-0-0-0-0-0-0-| 
G#|3--3-3-3-3-3--3-3-3-3-3-3-3-3--2--2-2-2-2-2--2-2-2-2-2-2-2-2-| 
C#|x--x-x-x-x-x--x-x-x-x-x-x-x-x--x--x-x-x-x-x--x-x-x-x-x-x-x-x-| 

D#|x--x-x-x-x-x--x-x-x-x-x-x-x-x--x--x-x-x-x-x--x-x-x-x-x-x-x-x-| 
A#|1--1-1-1-1-1--1-1-1-1-1-1-1-1--1--1-1-1-1-1--1-1-1-1-1-1-1-1-| 
F#|0--0-0-0-0-0--0-0-0-0-0-0-0-0--0--0-0-0-0-0--0-0-0-0-0-0-0-0-| 
C#|2--2-2-2-2-2--2-2-2-2-2-2-2-2--0--0-0-0-0-0--0-0-0-0-0-0-0-0-| 
G#|0--0-0-0-0-0--0-0-0-0-0-0-0-0--2--2-2-2-2-2--2-2-2-2-2-2-2-2-| 
C#|x--x-x-x-x-x--x-x-x-x-x-x-x-x--x--x-x-x-x-x--x-x-x-x-x-x-x-x-| 

D#|x--x-x--x-x---x-x--x-x-x-x-x--x-x--x-x---x-x--x-x-x-x-| 
A#|1--1-1--1-1---1-1--1-1-1-1-1--1-1--1-1---1-1--1-1-1-1-| 
F#|0--0-0--0-0---0-0--0-0-0-0-0--0-0--0-0---0-0--0-0-0-0-| 
C#|3--3-3--3-3---3-3--3-3-3-3-0--0-0--0-0---0-0--0-0-0-0-| 
G#|3--3-3--3-3---3-3--3-3-3-3-2--2-2--2-2---2-2--2-2-2-2-| 
C#|x--x-x--x-x---x-x--x-x-x-x-x--x-x--x-x---x-x--x-x-x-x-| 

D#|x--x-x--x-x---x-x--x-x-x-x-x--x-x--x-x---x-x--x-x-x-x-| 
A#|1--1-1--1-1---1-1--1-1-1-1-1--1-1--1-1---1-1--1-1-1-1-| 
F#|0--0-0--0-0---0-0--0-0-0-0-0--0-0--0-0---0-0--0-0-0-0-| 
C#|2--2-2--2-2---2-2--2-2-2-2-0--0-0--0-0---0-0--0-0-0-0-| 
G#|0--0-0--0-0---0-0--0-0-0-0-2--2-2--2-2---2-2--2-2-2-2-| 
C#|x--x-x--x-x---x-x--x-x-x-x-x--x-x--x-x---x-x--x-x-x-x-| 

D#|x--x-x-x-x-x--x-x-x-x-x-x-x-x--x--x-x-x-x-x--x-x-x-x-x-x-x-x-| 
A#|1--1-1-1-1-1--1-1-1-1-1-1-1-1--1--1-1-1-1-1--1-1-1-1-1-1-1-1-| 
F#|0--0-0-0-0-0--0-0-0-0-0-0-0-0--0--0-0-0-0-0--0-0-0-0-0-0-0-0-| 
C#|3--3-3-3-3-3--3-3-3-3-3-3-3-3--0--0-0-0-0-0--0-0-0-0-0-0-0-0-| 
G#|3--3-3-3-3-3--3-3-3-3-3-3-3-3--2--2-2-2-2-2--2-2-2-2-2-2-2-2-| 
C#|x--x-x-x-x-x--x-x-x-x-x-x-x-x--x--x-x-x-x-x--x-x-x-x-x-x-x-x-| 

D#|x--x-x-x-x-x--x-x-x-x-x-x-x-x----------------| 
A#|1--1-1-1-1-1--1-1-1-1-1-1-1-1----------------| 
F#|0--0-0-0-0-0--0-0-0-0-0-0-0-0----------------| 
C#|2--2-2-2-2-2--2-2-2-2-2-2-2-3----------------| 
G#|0--0-0-0-0-0--0-0-0-0-0-0-0-3----------------| 
C#|x--x-x-x-x-x--x-x-x-x-x-x-x-x----------------| 


Guitar and Piano Solo 

D#|x---x-x-x-x-----x-x-x-x-x-x-x-x---x--x-x-----x--x-x-x-x-x-| 
A#|1---1-x-x-1-----1-1-1-1-1-1-1-1---1--1-1-----1--1-1-1-1-1-| 
F#|2---2-x-x-2-p0--0-0-0-0-0-0-0-0---0--0-0-----0--0-0-0-0-0-| 
C#|3---3-x-x-3-----3-3-3-3-2-2-0-0---0--0-0-h2--2--2-2-2-2-2-| 
G#|3---3-x-x-3-----3-3-3-3-3-3-3-3---3--3-3-----3--3-3-3-3-3-| 
C#|x---x-x-x-x-----x-x-x-x-x-x-x-x---x--x-x-----x--x-x-x-x-x-| 

D#|x---x-x-x-x-----x-x-x-x-x-x-x-x---x-x--x-x-x-x-x-x-x-x-x-x-| 
A#|1---1-x-x-1-----1-1-1-1-1-1-1-1---1-1--1-1-1-1-1-1-1-1-1-1-| 
F#|2---2-x-x-2-p0--0-0-0-0-0-0-0-0---0-0--0-0-0-0-0-0-0-0-0-0-| 
C#|3---3-x-x-3-----3-3-3-3-2-2-0-0---0-0--0-0-0-0-0-0-0-0-0-0-| 
G#|3---3-x-x-3-----3-3-3-3-3-3-3-3---3-3--3-3-3-2-2-2-2-2-2-2-| 
C#|x---x-x-x-x-----x-x-x-x-x-x-x-x---x-x--x-x-x-x-x-x-x-x-x-x-| 

D#|x-x-x-x--x--x--x-x-x-x-x-x-x-x---x--x-x-----x--x-x-x-x-x-| 
A#|1-1-1-1--1--1--1-1-1-1-1-1-1-1---1--1-1-----1--1-1-1-1-1-| 
F#|0-0-0-0--0--0--0-0-0-0-0-0-0-0---0--0-0-----0--0-0-0-0-0-| 
C#|3-3-3-3--3--3--3-3-3-3-2-2-0-0---0--0-0-h2--2--2-2-2-2-2-| 
G#|3-3-3-3--3--3--3-3-3-3-3-3-3-3---3--3-0-----0--0-0-0-0-0-| 
C#|x-x-x-x--x--x--x-x-x-x-x-x-x-x---x--x-x-----x--x-x-x-x-x-| 

D#|x---x-x-x-x-----x-x-x-x-x-x-x-x---x-x--x-x-x-x-x-x-x-x-x-x-| 
A#|1---1-x-x-1-----1-1-1-1-1-1-1-1---1-1--1-1-1-1-1-1-1-1-1-1-| 
F#|2---2-x-x-2-p0--0-0-0-0-0-0-0-0---0-0--0-0-0-0-0-0-0-0-0-0-| 
C#|3---3-x-x-3-----3-3-3-3-2-2-0-0---0-0--0-0-0-0-0-0-0-0-0-0-| 
G#|3---3-x-x-3-----3-3-3-3-3-3-3-3---3-3--3-3-3-2-2-2-2-2-2-2-| 
C#|x---x-x-x-x-----x-x-x-x-x-x-x-x---x-x--x-x-x-x-x-x-x-x-x-x-| 


Chorus 

D#|x----------------x--------x--------x----------------x--x-x-x--x-x-x-x-x-x-x-x-x-x-| 
A#|1----------------1--------1--------1----------------1--1-1-1--1-1-1-1-1-1-1-1-1-1-| 
F#|0----------------0--------0--------0----------------0--0-0-0--0-0-0-0-0-0-0-0-0-0-| 
C#|3----------------0--------2--------3----------------0--0-0-0--0-0-0-0-0-0-0-0-0-0-| 
G#|3----------------2--------3--------3----------------3--3-3-3--3-3-3-2-2-2-2-2-2-2-| 
C#|x----------------x--------x--------x----------------x--x-x-x--x-x-x-x-x-x-x-x-x-x-| 

D#|------------x--x-x-x-x-x-x-x-x---x--x-x-----x--x-x-x-x-x-| 
A#|------------1--1-1-1-1-1-1-1-1---1--1-1-----1--1-1-1-1-1-| 
F#|------------0--0-0-0-0-0-0-0-0---0--0-0-----0--0-0-0-0-0-| 
C#|------------3--3-3-3-3-2-2-0-0---0--0-0-h2--2--2-2-2-2-2-| 
G#|------------3--3-3-3-3-3-3-3-3---3--3-0-----0--0-0-0-0-0-| 
C#|------------x--x-x-x-x-x-x-x-x---x--x-x-----x--x-x-x-x-x-| 

D#|x---x-x-x-x-----x-x-x-x-x-x-x-x---x-x--x-x-x-x-x-x-x-x-x-x-| 
A#|1---1-x-x-1-----1-1-1-1-1-1-1-1---1-1--1-1-1-1-1-1-1-1-1-1-| 
F#|2---2-x-x-2-p0--0-0-0-0-0-0-0-0---0-0--0-0-0-0-0-0-0-0-0-0-| 
C#|3---3-x-x-3-----3-3-3-3-2-2-0-0---0-0--0-0-0-0-0-0-0-0-0-0-| 
G#|3---3-x-x-3-----3-3-3-3-3-3-3-3---3-3--3-3-3-2-2-2-2-2-2-2-| 
C#|x---x-x-x-x-----x-x-x-x-x-x-x-x---x-x--x-x-x-x-x-x-x-x-x-x-| 

D#|x---x-x-x-x-----x-x-x-x-x-x-x-x---x--x-x-----x--x-x-x-x-x-| 
A#|1---1-x-x-1-----1-1-1-1-1-1-1-1---1--1-1-----1--1-1-1-1-1-| 
F#|2---2-x-x-2-p0--0-0-0-0-0-0-0-0---0--0-0-----0--0-0-0-0-0-| 
C#|3---3-x-x-3-----3-3-3-3-2-2-0-0---0--0-0-h2--2--2-2-2-2-2-| 
G#|3---3-x-x-3-----3-3-3-3-3-3-3-3---3--3-3-----3--3-3-3-3-3-| 
C#|x---x-x-x-x-----x-x-x-x-x-x-x-x---x--x-x-----x--x-x-x-x-x-| 

D#|x---x-x-x-x-----x-x-x-x-x-x-x-x---x-x-x-x-------------------| 
A#|1---1-x-x-1-----1-1-1-1-1-1-1-1---1-1-1-1-------------------| 
F#|2---2-x-x-2-p0--0-0-0-0-0-0-0-0---0-0-0-0-------------------| 
C#|3---3-x-x-3-----3-3-3-3-2-2-0-0---0-0-0-0-------------------| 
G#|3---3-x-x-3-----3-3-3-3-3-3-3-3---3-3-3-2-------------------| 
C#|x---x-x-x-x-----x-x-x-x-x-x-x-x---x-x-x-x-------------------| 


************************************ 

| x   Dead note 
| h   Hammer-on 
| p   Pull-off 

************************************ 
  

top 5 | small town heroes
top rock'n roll
Outras músicas do artista letras do(a) Small Town Heroes
Top cifras »Top artistas »
Petaxxon Comunicação Online
Cifras.com.br - Melhor e mais completo site de cifras e tablaturas do Brasil
Mais de 1 milhão de acordes de músicas cadastradas desde 2003
As informações contidas no nosso site são colaborações de seus usuários e podem conter erros, sendo assim, não nos responsabilizamos sobre nenhuma destas.
close
menos
mais
close
Cor dos acordes:

Cor da letra:

 

save
close
close
 
redimensionar