Cifras e Tablaturas
Small Town Heroes

Small Town Heroes

Shes Not Into Me

Cifras Cancelar Versão de Impressão
cifras

Small Town Heroes - Shes Not Into Me

fixar na tela  
Exibindo: vídeo-aula ver clipes redimensionar

Tom:

  Intro 

D#|----------------------------------------------------| 
A#|----------------------------------------------------| 
F#|7--7-7--7-7---7-7--7-7-7--7--7-7--7-7---7-7--7-7-7--| 
C#|7--7-7--7-7---7-7--7-7-7--5--5-5--5-5---5-5--5-5-5--| 
G#|5--5-5--5-5---5-5--5-5-5--5--5-5--5-5---5-5--5-5-5--| 
C#|----------------------------------------------------| 

D#|----------------------------------------------------| 
A#|----------------------------------------------------| 
F#|7--7-7--7-7---7-7--7-7-7--9--9-9--9-9---9-9--9-9-9--| 
C#|4--4-4--4-4---4-4--4-4-4--7--7-7--7-7---7-7--7-7-7--| 
G#|5--5-5--5-5---5-5--5-5-5--5--5-5--5-5---5-5--5-5-5--| 
C#|----------------------------------------------------| 

D#|----------------------------------------------------------------------------------------------------------| 
A#|----------------------------------------------------------------------------------------------------------| 
F#|----------7---7-7--7-7-7--------------------------------------7---7-7--7-7-7------------------------------| 
C#|5--5-5--5-7---7-7--7-7-7--7--7-7--7-9---9-9--7--7--9--9--9--9-7---7-7--7-7-7--5--5-5--5-5--7--7-7-7-7-7-7-| 
G#|5--5-5--5-5---5-5--5-5-5--7--7-7--7-9---9-9--7--7--9--9--9--9-5---5-5--5-5-5--5--5-5--5-5--7--7-7-7-7-7-7-| 
C#|5--5-5--5-----------------7--7-7--7-9---9-9--7--7--9--9--9--9-----------------5--5-5--5-5--7--7-7-7-7-7-7-| 


verse 1 

D#|----------------------------------------------------| 
A#|----------------------------------------------------| 
F#|7--7-7--7-7---7-7--7-7-7--7--7-7--7-7---7-7--7-7-7--| 
C#|7--7-7--7-7---7-7--7-7-7--5--5-5--5-5---5-5--5-5-5--| 
G#|5--5-5--5-5---5-5--5-5-5--5--5-5--5-5---5-5--5-5-5--| 
C#|----------------------------------------------------| 

D#|----------------------------------------------------| 
A#|----------------------------------------------------| 
F#|7--7-7--7-7---7-7--7-7-7--9--9-9--9-9---9-9--9-9-9--| 
C#|4--4-4--4-4---4-4--4-4-4--7--7-7--7-7---7-7--7-7-7--| 
G#|5--5-5--5-5---5-5--5-5-5--5--5-5--5-5---5-5--5-5-5--| 
C#|----------------------------------------------------| 

D#|----------------------------------------------------| 
A#|----------------------------------------------------| 
F#|7--7-7--7-7---7-7--7-7-7--7--7-7--7-7---7-7--7-7-7--| 
C#|7--7-7--7-7---7-7--7-7-7--5--5-5--5-5---5-5--5-5-5--| 
G#|5--5-5--5-5---5-5--5-5-5--5--5-5--5-5---5-5--5-5-5--| 
C#|----------------------------------------------------| 
   
                                PM-----------------| 
D#|--------------------------------------------------| 
A#|--------------------------------------------------| 
F#|7--7-7--7-7---7-7--7-7-7--9-----------------------| 
C#|4--4-4--4-4---4-4--4-4-4--7-----------------------| 
G#|5--5-5--5-5---5-5--5-5-5--5--7--7--7--7--7--7--7--| 
C#|-----------------------------7--7--7--7--7--7--7--| 


Chorus 

D#|----------------------------------------------------------------------------------------------| 
A#|----------------------------------------------------------------------------------------------| 
F#|---------------7--7--7----------------------------------------7--7--6-------------------------| 
C#|5--5--5--5--5--7--7--7----5--5--5--5--5--5--5--9--9--9--9--9--7--7--7----2--2--2--2--4--4--4--| 
G#|5--5--5--5--5--5--5--5----5--5--5--5--5--5--5--9--9--9--9--9--5--5--5----2--2--2--2--4--4--4--| 
C#|5--5--5--5--5-------------5--5--5--5--5--5--5--9--9--9--9--9-------------2--2--2--2--4--4--4--| 

D#|---------------------------------------------------------------------------------------------| 
A#|---------------------------------------------------------------------------------------------| 
F#|---------------7--7--7-----------------------------------------------------------------------| 
C#|5--5--5--5--5--7--7--7---5--5--5--5--5--5--5--4--4--4--4--4--4--4--4----5--5--5--5--5--5--5--| 
G#|5--5--5--5--5--5--5--5---5--5--5--5--5--5--5--4--4--4--4--4--4--4--4----5--5--5--5--5--5--5--| 
C#|5--5--5--5--5------------5--5--5--5--5--5--5--4--4--4--4--4--4--4--4----5--5--5--5--5--5--5--| 


verse 2 

D#|----------------------------------------------------| 
A#|----------------------------------------------------| 
F#|7--7-7--7-7---7-7--7-7-7--7--7-7--7-7---7-7--7-7-7--| 
C#|7--7-7--7-7---7-7--7-7-7--5--5-5--5-5---5-5--5-5-5--| 
G#|5--5-5--5-5---5-5--5-5-5--5--5-5--5-5---5-5--5-5-5--| 
C#|----------------------------------------------------| 

D#|----------------------------------------------------| 
A#|---------------------------------------7--7-7--7-7--| 
F#|7--7-7--7-7---7-7--7-7-7--9--9-9--9-9--x--x-x--x-x--| 
C#|4--4-4--4-4---4-4--4-4-4--7--7-7--7-7--7--7-7--7-7--| 
G#|5--5-5--5-5---5-5--5-5-5--5--5-5--5-5--5--5-5--5-5--| 
C#|----------------------------------------------------| 

D#|----------------------------------------------------------------------------------------------------------| 
A#|----------------------------------------------------------------------------------------------------------| 
F#|7--7-7--7-7---7-7--7-7-7----------------------------------------------------------------------------------| 
C#|7--7-7--7-7---7-7--7-7-7--5--5-5--5-5---5-5--5-5-5--9--9-9--9-9---9-9--9-9-9--7--7-7--7-7--5--5-5-5-5-5-5-| 
G#|5--5-5--5-5---5-5--5-5-5--5--5-5--5-5---5-5--5-5-5--9--9-9--9-9---9-9--9-9-9--7--7-7--7-7--5--5-5-5-5-5-5-| 
C#|--------------------------5--5-5--5-5---5-5--5-5-5--9--9-9--9-9---9-9--9-9-9--7--7-7--7-7--5--5-5-5-5-5-5-| 

                                                                                     PM-------| 
D#|------------------------------------------------------------------------------------------------------| 
A#|------------------------------------------------------------------------------------------------------| 
F#|--------------------------7--7-7--7-7---7-7--7-7-7----------------------------------------------------| 
C#|9--9-9--9-5---5-5--5-5-5--7--7-7--7-7---7-7--7-7-7--9--9-9--9-5---5-5--5-5-5--4--------------7--7--7--| 
G#|9--9-9--9-5---5-5--5-5-5--5--5-5--5-5---5-5--5-5-5--9--9-9--9-5---5-5--5-5-5--4--4--4--4--4--5--5--5--| 
C#|9--9-9--9-5---5-5--5-5-5----------------------------9--9-9--9-5---5-5--5-5-5--4--4--4--4--4--4--4--4--| 


Chorus 

D#|----------------------------------------------------------------------------------------------| 
A#|----------------------------------------------------------------------------------------------| 
F#|---------------7--7--7----------------------------------------7--7--6-------------------------| 
C#|5--5--5--5--5--7--7--7----5--5--5--5--5--5--5--9--9--9--9--9--7--7--7----2--2--2--2--4--4--4--| 
G#|5--5--5--5--5--5--5--5----5--5--5--5--5--5--5--9--9--9--9--9--5--5--5----2--2--2--2--4--4--4--| 
C#|5--5--5--5--5-------------5--5--5--5--5--5--5--9--9--9--9--9-------------2--2--2--2--4--4--4--| 

D#|---------------------------------------------------------------------------------------------| 
A#|---------------------------------------------------------------------------------------------| 
F#|---------------7--7--7-----------------------------------------------------------------------| 
C#|5--5--5--5--5--7--7--7---5--5--5--5--5--5--5--4--4--4--4--4--4--4--4----5--5--5--5--5--5--5--| 
G#|5--5--5--5--5--5--5--5---5--5--5--5--5--5--5--4--4--4--4--4--4--4--4----5--5--5--5--5--5--5--| 
C#|5--5--5--5--5------------5--5--5--5--5--5--5--4--4--4--4--4--4--4--4----5--5--5--5--5--5--5--| 


Bridge 

D#|--------------------------------------------------------------------------------------------| 
A#|--------------------------------------------------------------------------------------------| 
F#|7--7--7--7--7--7----7----7--7--7--7--7--7--7--7--7--7--7--7--7----7----7--7--7--7--7--7--7--| 
C#|7--7--7--7--7--7----6----6--6--6--6--6--6--6--5--5--5--5--5--5----4----4--4--4--4--4--4--4--| 
G#|5--5--5--5--5--5----5----5--5--5--5--5--5--5--5--5--5--5--5--5----5----5--5--5--5--5--5--5--| 
C#|--------------------------------------------------------------------------------------------| 

D#|---------------------------------------------------------------------------------------| 
A#|---------------------------------------------------------------------------------------| 
F#|---------------------------------------------------------------------------------------| 
C#|2--2--2--2--2--4--4--5----5--5--5--5--5--5--5--2--2--2--2--2--4--4--5------------------| 
G#|2--2--2--2--2--4--4--5----5--5--5--5--5--5--5--2--2--2--2--2--4--4--5------------------| 
C#|2--2--2--2--2--4--4--5----5--5--5--5--5--5--5--2--2--2--2--2--4--4--5------------------| 


Chorus 

D#|----------------------------------------------------------------------------------------------| 
A#|----------------------------------------------------------------------------------------------| 
F#|---------------7--7--7----------------------------------------7--7--6-------------------------| 
C#|5--5--5--5--5--7--7--7----5--5--5--5--5--5--5--9--9--9--9--9--7--7--7----2--2--2--2--4--4--4--| 
G#|5--5--5--5--5--5--5--5----5--5--5--5--5--5--5--9--9--9--9--9--5--5--5----2--2--2--2--4--4--4--| 
C#|5--5--5--5--5-------------5--5--5--5--5--5--5--9--9--9--9--9-------------2--2--2--2--4--4--4--| 

D#|---------------------------------------------------------------------------------------------| 
A#|---------------------------------------------------------------------------------------------| 
F#|---------------7--7--7-----------------------------------------------------------------------| 
C#|5--5--5--5--5--7--7--7---5--5--5--5--5--5--5--4--4--4--4--4--4--4--4----5--5--5--5--5--5--5--| 
G#|5--5--5--5--5--5--5--5---5--5--5--5--5--5--5--4--4--4--4--4--4--4--4----5--5--5--5--5--5--5--| 
C#|5--5--5--5--5------------5--5--5--5--5--5--5--4--4--4--4--4--4--4--4----5--5--5--5--5--5--5--| 


Outro 

D#|----------------------------------------------------------------------------------------------| 
A#|----------------------------------------------------------------------------------------------| 
F#|---------------7--7--7----------------------------------------7--7--6----7--7--7--6--6--------| 
C#|5--5--5--5--5--7--7--7----5--5--5--5--5--5--5--9--9--9--9--9--7--7--7----7--7--7--7--7--7--7--| 
G#|5--5--5--5--5--5--5--5----5--5--5--5--5--5--5--9--9--9--9--9--5--5--5----5--5--5--5--5--7--7--| 
C#|5--5--5--5--5-------------5--5--5--5--5--5--5--9--9--9--9--9----------------------------7--7--| 
    
                                                                                       PM------| 
D#|---------------------------------------------------------------------------------------------| 
A#|---------------------------------------------------------------------------------------------| 
F#|---------------7--7--7-----------------------------------------------------------------------| 
C#|5--5--5--5--5--7--7--7---5--5--5--5--5--5--5--4--4--4--4--4--4--4--4----5--5--5--5-----------| 
G#|5--5--5--5--5--5--5--5---5--5--5--5--5--5--5--4--4--4--4--4--4--4--4----5--5--5--5--5--5--5--| 
C#|5--5--5--5--5------------5--5--5--5--5--5--5--4--4--4--4--4--4--4--4----5--5--5--5--5--5--5--| 

************************************ 

| x   Dead note 
| PM  Palm mute 

************************************ 
  

top 5 | small town heroes
top rock'n roll
Outras músicas do artista letras do(a) Small Town Heroes
Top cifras »Top artistas »
Petaxxon Comunicação Online
Cifras.com.br - Melhor e mais completo site de cifras e tablaturas do Brasil
Mais de 1 milhão de acordes de músicas cadastradas desde 2003
As informações contidas no nosso site são colaborações de seus usuários e podem conter erros, sendo assim, não nos responsabilizamos sobre nenhuma destas.
close
menos
mais
close
Cor dos acordes:

Cor da letra:

 

save
close
close
 
redimensionar