Cifras e Tablaturas
Small Town Heroes

Small Town Heroes

Without You

Cifras Cancelar Versão de Impressão
cifras

Small Town Heroes - Without You

fixar na tela  
Exibindo: vídeo-aula ver clipes redimensionar

Tom:

  Intro 

Guitar 1 
e|--------------------------------------------------------------------------------| 
B|--------------------------------------------------------------------------------| 
G|5-5-5-5-12-12-12-12-10-10-10-10-9-9-9-9-5-5-5-5-12-12-12-12-10-10-10-10-9-9-9-9-| 
D|--------------------------------------------------------------------------------| 
A|3-3-3-3-10-10-10-10-8--8--8--8--7-7-7-7-3-3-3-3-10-10-10-10-8--8--8--8--7-7-7-7-| 
d|--------------------------------------------------------------------------------| 

Guitar 2 
e|----------------------------------------------------------------| 
B|----------------------------------------------------------------| 
G|5-5-5-5-5-5-5-5-5-5-5-5-5-5-5-5---------------------------------| 
D|5-5-5-5-5-5-5-5-5-5-5-5-5-5-5-5-3-3-3-3-3-3-3-3-3-3-3-3-3-3-3-3-| 
A|3-3-3-3-3-3-3-3-3-3-3-3-3-3-3-3-3-3-3-3-3-3-3-3-3-3-3-3-3-3-3-3-| 
d|--------------------------------3-3-3-3-3-3-3-3-3-3-3-3-3-3-3-3-| 

Guitar 1 
e|----------------------------------------------------------------| 
B|----------------------------------------------------------------| 
G|5-5-5-5-5-5-5-5-4-4-4-4-4-4-4-4-5-5-5-5-5-5-5-5-5-5-5-5-5-5-5-5-| 
D|----------------------------------------------------------------| 
A|3-3-3-3-3-3-3-3-2-2-2-2-2-2-2-2-3-3-3-3-3-3-3-3-3-3-3-3-3-3-3-3-| 
d|----------------------------------------------------------------| 

Guitar 2 
e|----------------------------------------------------------------| 
B|----------------------------------------------------------------| 
G|----------------------------------------------------------------| 
D|7-7-7-7-7-7-7-7-7-7-7-7-7-7-7-7-3-3-3-3-3-3-3-3-3-3-3-3-3-3-3-3-| 
A|7-7-7-7-7-7-7-7-7-7-7-7-7-7-7-7-3-3-3-3-3-3-3-3-3-3-3-3-3-3-3-3-| 
d|7-7-7-7-7-7-7-7-7-7-7-7-7-7-7-7-3-3-3-3-3-3-3-3-3-3-3-3-3-3-3-3-| 


verse 1 

Guitar 1 
e|----------------------------------------------------------------------------------------------| 
B|-------------8-----------------------------------------------8--------------------------------| 
G|9--9-9-9--9-----9--9--7--x--7--x--7--7h9p7------9--9-9-9--9-----9--9--7--x--7--x--7--7h9------| 
D|--------------------------------------------10------------------------------------------------| 
A|----------------------------------------------------------------------------------------------| 
d|----------------------------------------------------------------------------------------------| 

e|-------------------------------------------------------------------------------------------------| 
B|-------------5--------3-----3--------3h5p3------------------1--------1-----1---------------------| 
G|5--5-5-5--5-----5--5-----5-----5--5---------5--2--2-2-2--2-----2--2-----2-----2--2--10--10--9----| 
D|-------------------------------------------------------------------------------------------------| 
A|-------------------------------------------------------------------------------------------------| 
d|-------------------------------------------------------------------------------------------------| 

e|----------------------------------------------------------------------------------------------| 
B|-------------8-----------------------------------------------8--------------------------------| 
G|9--9-9-9--9-----9--9--7--x--7--x--7--7h9p7------9--9-9-9--9-----9--9--7--x--7--x--7--7h9------| 
D|--------------------------------------------10------------------------------------------------| 
A|----------------------------------------------------------------------------------------------| 
d|----------------------------------------------------------------------------------------------| 

e|-------------------------------------------------------------------------------------------------| 
B|-------------5--------3-----3--------3h5p3------------------1--------1-----1---------------------| 
G|5--5-5-5--5-----5--5-----5-----5--5---------5--2--2-2-2--2-----2--2-----2-----2--2--10--10--9----| 
D|-------------------------------------------------------------------------------------------------| 
A|-------------------------------------------------------------------------------------------------| 
d|-------------------------------------------------------------------------------------------------| 


Pre-Chorus} 

Guitar 1 
e|---------------------------------------------------------------------------------| 
B|---------------8-----------------------------------------------------8-----------| 
G|--------9-------------9--------------10--------------9------------------9--------| 
D|10-------------------------------------------10----------------------------10----| 
A|---------------------------------------------------------------------------------| 
d|---------------------------------------------------------------------------------| 

Guitar 2 
e|---------------------------------------------------------------------------------| 
B|---------------------------------------------------------------------------------| 
G|7-----------------------------------5--------------------------------------------| 
D|7-----------------------------------5--------------------------------------------| 
A|5-----------------------------------3--------------------------------------------| 
d|------------------------------------3--------------------------------------------| 

Guitar 1 
e|-----------------------------------------------------------------------x--x-------| 
B|---------------8-------------------------------------------------------x--x-------| 
G|--------9-------------9--------------10--------------------------------x--x-------| 
D|7----------------------------------------------10----10----10----10----x--x-------| 
A|-----------------------------------------------------------------------x--x-------| 
d|-----------------------------------------------------------------------x--x-------| 

Guitar 2 
e|---------------------------------------------------------------------------------| 
B|---------------------------------------------------------------------------------| 
G|7-----------------------------------5--------------------------------------------| 
D|7-----------------------------------5--------------------------------------------| 
A|5-----------------------------------3--------------------------------------------| 
d|------------------------------------3--------------------------------------------| 


Chorus 

Guitar 1 
e|--------------------------------------------------------------------------------| 
B|--------------------------------------------------------------------------------| 
G|5-5-5-5-12-12-12-12-10-10-10-10-9-9-9-9-5-5-5-5-12-12-12-12-10-10-10-10-9-9-9-9-| 
D|--------------------------------------------------------------------------------| 
A|3-3-3-3-10-10-10-10-8--8--8--8--7-7-7-7-3-3-3-3-10-10-10-10-8--8--8--8--7-7-7-7-| 
d|--------------------------------------------------------------------------------| 

Guitar 2 
e|----------------------------------------------------------------| 
B|----------------------------------------------------------------| 
G|5-5-5-5-5-5-5-5-5-5-5-5-5-5-5-5---------------------------------| 
D|5-5-5-5-5-5-5-5-5-5-5-5-5-5-5-5-3-3-3-3-3-3-3-3-3-3-3-3-3-3-3-3-| 
A|3-3-3-3-3-3-3-3-3-3-3-3-3-3-3-3-3-3-3-3-3-3-3-3-3-3-3-3-3-3-3-3-| 
d|--------------------------------3-3-3-3-3-3-3-3-3-3-3-3-3-3-3-3-| 

Guitar 1 
e|----------------------------------------------------------------| 
B|----------------------------------------------------------------| 
G|5-5-5-5-5-5-5-5-4-4-4-4-4-4-4-4-5-5-5-5-5-5-5-5-5-5-5-5-5-5-5-5-| 
D|----------------------------------------------------------------| 
A|3-3-3-3-3-3-3-3-2-2-2-2-2-2-2-2-3-3-3-3-3-3-3-3-3-3-3-3-3-3-3-3-| 
d|----------------------------------------------------------------| 

Guitar 2 
e|----------------------------------------------------------------| 
B|----------------------------------------------------------------| 
G|----------------------------------------------------------------| 
D|7-7-7-7-7-7-7-7-7-7-7-7-7-7-7-7-3-3-3-3-3-3-3-3-3-3-3-3-3-3-3-3-| 
A|7-7-7-7-7-7-7-7-7-7-7-7-7-7-7-7-3-3-3-3-3-3-3-3-3-3-3-3-3-3-3-3-| 
d|7-7-7-7-7-7-7-7-7-7-7-7-7-7-7-7-3-3-3-3-3-3-3-3-3-3-3-3-3-3-3-3-| 

Guitar 1 
e|--------------------------------------------------------------------------------| 
B|--------------------------------------------------------------------------------| 
G|5-5-5-5-12-12-12-12-10-10-10-10-9-9-9-9-5-5-5-5-12-12-12-12-10-10-10-10-9-9-9-9-| 
D|--------------------------------------------------------------------------------| 
A|3-3-3-3-10-10-10-10-8--8--8--8--7-7-7-7-3-3-3-3-10-10-10-10-8--8--8--8--7-7-7-7-| 
d|--------------------------------------------------------------------------------| 

Guitar 2 
e|----------------------------------------------------------------| 
B|----------------------------------------------------------------| 
G|5-5-5-5-5-5-5-5-5-5-5-5-5-5-5-5---------------------------------| 
D|5-5-5-5-5-5-5-5-5-5-5-5-5-5-5-5-3-3-3-3-3-3-3-3-3-3-3-3-3-3-3-3-| 
A|3-3-3-3-3-3-3-3-3-3-3-3-3-3-3-3-3-3-3-3-3-3-3-3-3-3-3-3-3-3-3-3-| 
d|--------------------------------3-3-3-3-3-3-3-3-3-3-3-3-3-3-3-3-| 

Guitar 1 
e|------------------------------------------------------------------------------------------------| 
B|------------------------------------------------------------------------------------------------| 
G|17-17-17-17-17-17-17-17-16-16-16-16-16-16-16-16-12-12-12-12-12-12-12-12-12-12-12-12-12-12-12-12-| 
D|------------------------------------------------------------------------------------------------| 
A|15-15-15-15-15-15-15-15-14-14-14-14-14-14-14-14-10-10-10-10-10-10-10-10-10-10-10-10-10-10-10-10-| 
d|------------------------------------------------------------------------------------------------| 

Guitar 2 
e|----------------------------------------------------------------| 
B|----------------------------------------------------------------| 
G|----------------------------------------------------------------| 
D|7-7-7-7-7-7-7-7-7-7-7-7-7-7-7-7-3-3-3-3-3-3-3-3-3-3-3-3-3-3-3-3-| 
A|7-7-7-7-7-7-7-7-7-7-7-7-7-7-7-7-3-3-3-3-3-3-3-3-3-3-3-3-3-3-3-3-| 
d|7-7-7-7-7-7-7-7-7-7-7-7-7-7-7-7-3-3-3-3-3-3-3-3-3-3-3-3-3-3-3-3-| 


Interlude 

e|------------------------------------------------------------------------------------------------| 
B|-------------8-------------------------------------------------8--------------------------------| 
G|9--9-9-9--9-----9--9--7--x--7--x--7--7h9-------------9-9-9--9-----9--9--7--x--7--x--7--7h9------| 
D|------------------------------------------------------------------------------------------------| 
A|------------------------------------------------------------------------------------------------| 
d|------------------------------------------------------------------------------------------------| 


verse 2 

Guitar 1 
e|----------------------------------------------------------------------------------------------| 
B|-------------8-----------------------------------------------8--------------------------------| 
G|9--9-9-9--9-----9--9--7--x--7--x--7--7h9p7------9--9-9-9--9-----9--9--7--x--7--x--7--7h9------| 
D|--------------------------------------------10------------------------------------------------| 
A|----------------------------------------------------------------------------------------------| 
d|----------------------------------------------------------------------------------------------| 

e|-------------------------------------------------------------------------------------------------| 
B|-------------5--------3-----3--------3h5p3------------------1--------1-----1---------------------| 
G|5--5-5-5--5-----5--5-----5-----5--5---------5--2--2-2-2--2-----2--2-----2-----2--2--10--10--9----| 
D|-------------------------------------------------------------------------------------------------| 
A|-------------------------------------------------------------------------------------------------| 
d|-------------------------------------------------------------------------------------------------| 

e|----------------------------------------------------------------------------------------------| 
B|-------------8-----------------------------------------------8--------------------------------| 
G|9--9-9-9--9-----9--9--7--x--7--x--7--7h9p7------9--9-9-9--9-----9--9--7--x--7--x--7--7h9------| 
D|--------------------------------------------10------------------------------------------------| 
A|----------------------------------------------------------------------------------------------| 
d|----------------------------------------------------------------------------------------------| 

e|-------------------------------------------------------------------------------------------------| 
B|-------------5--------3-----3--------3h5p3------------------1--------1-----1---------------------| 
G|5--5-5-5--5-----5--5-----5-----5--5---------5--2--2-2-2--2-----2--2-----2-----2--2--10--10--9----| 
D|-------------------------------------------------------------------------------------------------| 
A|-------------------------------------------------------------------------------------------------| 
d|-------------------------------------------------------------------------------------------------| 


Pre-Chorus} 

Guitar 1 
e|---------------------------------------------------------------------------------| 
B|---------------8-----------------------------------------------------8-----------| 
G|--------9-------------9--------------10--------------9------------------9--------| 
D|10-------------------------------------------10----------------------------10----| 
A|---------------------------------------------------------------------------------| 
d|---------------------------------------------------------------------------------| 

Guitar 2 
e|---------------------------------------------------------------------------------| 
B|---------------------------------------------------------------------------------| 
G|7-----------------------------------5--------------------------------------------| 
D|7-----------------------------------5--------------------------------------------| 
A|5-----------------------------------3--------------------------------------------| 
d|------------------------------------3--------------------------------------------| 

Guitar 1 
e|-----------------------------------------------------------------------x--x-------| 
B|---------------8-------------------------------------------------------x--x-------| 
G|--------9-------------9--------------10--------------------------------x--x-------| 
D|7----------------------------------------------10----10----10----10----x--x-------| 
A|-----------------------------------------------------------------------x--x-------| 
d|-----------------------------------------------------------------------x--x-------| 

Guitar 2 
e|---------------------------------------------------------------------------------| 
B|---------------------------------------------------------------------------------| 
G|7-----------------------------------5--------------------------------------------| 
D|7-----------------------------------5--------------------------------------------| 
A|5-----------------------------------3--------------------------------------------| 
d|------------------------------------3--------------------------------------------| 


Chorus 

Guitar 1 
e|----------------------------------------------------------------| 
B|----------------------------------------------------------------| 
G|5-5-5-5-5-5-5-5-4-4-4-4-4-4-4-4-5-5-5-5-5-5-5-5-5-5-5-5-5-5-5-5-| 
D|----------------------------------------------------------------| 
A|3-3-3-3-3-3-3-3-2-2-2-2-2-2-2-2-3-3-3-3-3-3-3-3-3-3-3-3-3-3-3-3-| 
d|----------------------------------------------------------------| 

Guitar 2 
e|----------------------------------------------------------------| 
B|----------------------------------------------------------------| 
G|----------------------------------------------------------------| 
D|7-7-7-7-7-7-7-7-7-7-7-7-7-7-7-7-3-3-3-3-3-3-3-3-3-3-3-3-3-3-3-3-| 
A|7-7-7-7-7-7-7-7-7-7-7-7-7-7-7-7-3-3-3-3-3-3-3-3-3-3-3-3-3-3-3-3-| 
d|7-7-7-7-7-7-7-7-7-7-7-7-7-7-7-7-3-3-3-3-3-3-3-3-3-3-3-3-3-3-3-3-| 

Guitar 1 
e|--------------------------------------------------------------------------------| 
B|--------------------------------------------------------------------------------| 
G|5-5-5-5-12-12-12-12-10-10-10-10-9-9-9-9-5-5-5-5-12-12-12-12-10-10-10-10-9-9-9-9-| 
D|--------------------------------------------------------------------------------| 
A|3-3-3-3-10-10-10-10-8--8--8--8--7-7-7-7-3-3-3-3-10-10-10-10-8--8--8--8--7-7-7-7-| 
d|--------------------------------------------------------------------------------| 

Guitar 2 
e|----------------------------------------------------------------| 
B|----------------------------------------------------------------| 
G|5-5-5-5-5-5-5-5-5-5-5-5-5-5-5-5---------------------------------| 
D|5-5-5-5-5-5-5-5-5-5-5-5-5-5-5-5-3-3-3-3-3-3-3-3-3-3-3-3-3-3-3-3-| 
A|3-3-3-3-3-3-3-3-3-3-3-3-3-3-3-3-3-3-3-3-3-3-3-3-3-3-3-3-3-3-3-3-| 
d|--------------------------------3-3-3-3-3-3-3-3-3-3-3-3-3-3-3-3-| 

Guitar 1 
e|------------------------------------------------------------------------------------------------| 
B|------------------------------------------------------------------------------------------------| 
G|17-17-17-17-17-17-17-17-16-16-16-16-16-16-16-16-17-12-12-12-12-12-12-12-12-12-12-12-12-12-12-12-| 
D|------------------------------------------------------------------------------------------------| 
A|15-15-15-15-15-15-15-15-14-14-14-14-14-14-14-14-10-10-10-10-10-10-10-10-10-10-10-10-10-10-10-10-| 
d|------------------------------------------------------------------------------------------------| 

Guitar 2 
e|----------------------------------------------------------------| 
B|----------------------------------------------------------------| 
G|----------------------------------------------------------------| 
D|7-7-7-7-7-7-7-7-7-7-7-7-7-7-7-7-3-3-3-3-3-3-3-3-3-3-3-3-3-3-3-3-| 
A|7-7-7-7-7-7-7-7-7-7-7-7-7-7-7-7-3-3-3-3-3-3-3-3-3-3-3-3-3-3-3-3-| 
d|7-7-7-7-7-7-7-7-7-7-7-7-7-7-7-7-3-3-3-3-3-3-3-3-3-3-3-3-3-3-3-3-| 


Bridge 

Guitars 1 and 2 
e|-------------------------------------------------------------| 
B|-------------------------------------------------------------| 
G|7---7--x-7---7-7-7-7-7-7-7-10--10-x-10--10-10-10-10-10-10-10-| 
D|7---7--x-7---7-7-7-7-7-7-7-10--10-x-10--10-10-10-10-10-10-10-| 
A|5---5--x-5---5-5-5-5-5-5-5-8---8--x-8---8--8--8--8--8--8--8--| 
d|---------------------------8---8--x-8---8--8--8--8--8--8--8--| 

e|------------------------------------------------------| 
B|------------------------------------------------------| 
G|7---7--x-7---7-7-7-7-7-7-7-5---5--x-5---5-5-5-5-5-5-5-| 
D|7---7--x-7---7-7-7-7-7-7-7-5---5-=x-5---5-5-5-5-5-5-5-| 
A|5---5--x-5---5-5-5-5-5-5-5-3---3--x-3---3-3-3-3-3-3-3-| 
d|---------------------------3---3--x-3---3-3-3-3-3-3-3-| 

e|-------------------------------------------------------------| 
B|-------------------------------------------------------------| 
G|7---7--x-7---7-7-7-7-7-7-7-10--10-x-10--10-10-10-10-10-10-10-| 
D|7---7--x-7---7-7-7-7-7-7-7-10--10-x-10--10-10-10-10-10-10-10-| 
A|5---5--x-5---5-5-5-5-5-5-5-8---8--x-8---8--8--8--8--8--8--8--| 
d|---------------------------8---8--x-8---8--8--8--8--8--8--8--| 

e|------------------------------------------------------| 
B|------------------------------------------------------| 
G|7---7--x-7---7-7-7-7-7-7-7-5---5--x-5-----------------| 
D|7---7--x-7---7-7-7-7-7-7-7-5---5-=x-5-----------------| 
A|5---5--x-5---5-5-5-5-5-5-5-3---3--x-3-----------------| 
d|---------------------------3---3--x-3-----------------| 


Chorus 

and we always took our time to get here... 
Guitar 1 
e|--------------------------------------------------------------------------------| 
B|--------------------------------------------------------------------------------| 
G|5-5-5-5-12-12-12-12-10-10-10-10-9-9-9-9-5-5-5-5-12-12-12-12-10-10-10-10-9-9-9-9-| 
D|--------------------------------------------------------------------------------| 
A|3-3-3-3-10-10-10-10-8--8--8--8--7-7-7-7-3-3-3-3-10-10-10-10-8--8--8--8--7-7-7-7-| 
d|--------------------------------------------------------------------------------| 

Guitar 2 
e|----------------------------------------------------------------| 
B|----------------------------------------------------------------| 
G|5-5-5-5-5-5-5-5-5-5-5-5-5-5-5-5---------------------------------| 
D|5-5-5-5-5-5-5-5-5-5-5-5-5-5-5-5-3-3-3-3-3-3-3-3-3-3-3-3-3-3-3-3-| 
A|3-3-3-3-3-3-3-3-3-3-3-3-3-3-3-3-3-3-3-3-3-3-3-3-3-3-3-3-3-3-3-3-| 
d|--------------------------------3-3-3-3-3-3-3-3-3-3-3-3-3-3-3-3-| 

Guitar 1 
e|------------------------------------------------------------------------------------------------| 
B|------------------------------------------------------------------------------------------------| 
G|17-17-17-17-17-17-17-17-16-16-16-16-16-16-16-16-17-12-12-12-12-12-12-12-12-12-12-12-12-12-12-12-| 
D|------------------------------------------------------------------------------------------------| 
A|15-15-15-15-15-15-15-15-14-14-14-14-14-14-14-14-10-10-10-10-10-10-10-10-10-10-10-10-10-10-10-10-| 
d|------------------------------------------------------------------------------------------------| 

Guitar 2 
e|----------------------------------------------------------------| 
B|----------------------------------------------------------------| 
G|----------------------------------------------------------------| 
D|7-7-7-7-7-7-7-7-7-7-7-7-7-7-7-7-3-3-3-3-3-3-3-3-3-3-3-3-3-3-3-3-| 
A|7-7-7-7-7-7-7-7-7-7-7-7-7-7-7-7-3-3-3-3-3-3-3-3-3-3-3-3-3-3-3-3-| 
d|7-7-7-7-7-7-7-7-7-7-7-7-7-7-7-7-3-3-3-3-3-3-3-3-3-3-3-3-3-3-3-3-| 


Outro 

Guitar 1 
e|------15-------15-------15-------15-------15----12h13p12-------------------------------------------| 
B|12-13----12-13----12-13----12-13----12-13----13----------13/15\13-12-h13-p12-----------------------| 
G|-----------------------------------------------------------------------------12/14\12--------------| 
D|--------------------------------------------------------------------------------------14h15p14-----| 
A|-----------------------------------------------------------------------------------------------15--| 
d|---------------------------------------------------------------------------------------------------| 

Guitar 2 
e|----------------------------------------------------------------| 
B|----------------------------------------------------------------| 
G|5-5-5-5-5-5-5-5-5-5-5-5-5-5-5-5---------------------------------| 
D|5-5-5-5-5-5-5-5-5-5-5-5-5-5-5-5-3-3-3-3-3-3-3-3-3-3-3-3-3-3-3-3-| 
A|3-3-3-3-3-3-3-3-3-3-3-3-3-3-3-3-3-3-3-3-3-3-3-3-3-3-3-3-3-3-3-3-| 
d|--------------------------------3-3-3-3-3-3-3-3-3-3-3-3-3-3-3-3-| 

Guitar 1 
e|------15-------15-------15-------15-------15-----------------------| 
B|12-13----12-13----12-13----12-13----12-13----13-15---13-----13/15--| 
G|---------------------------------------------------------12--------| 
D|-------------------------------------------------------------------| 
A|-------------------------------------------------------------------| 
d|-------------------------------------------------------------------| 

Guitar 2 
e|----------------------------------------------| 
B|----------------------------------------------| 
G|----------------------------------------------| 
D|7-7-7-7-7-7-7-7-7-7-7-7-7-7-7-7-3---3--x-3-5--| 
A|7-7-7-7-7-7-7-7-7-7-7-7-7-7-7-7-3---3--x-3-5--| 
d|7-7-7-7-7-7-7-7-7-7-7-7-7-7-7-7-3---3--x-3-5--| 



************************************ 
| x   Dead note 
| h   Hammer-on 
| p   Pull-off 
| /   Slide up 
| \   Slide down 
************************************ 
  

top 5 | small town heroes
top rock'n roll
Outras músicas do artista letras do(a) Small Town Heroes
Top cifras »Top artistas »
Petaxxon Comunicação Online
Cifras.com.br - Melhor e mais completo site de cifras e tablaturas do Brasil
Mais de 1 milhão de acordes de músicas cadastradas desde 2003
As informações contidas no nosso site são colaborações de seus usuários e podem conter erros, sendo assim, não nos responsabilizamos sobre nenhuma destas.
close
menos
mais
close
Cor dos acordes:

Cor da letra:

 

save
close
close
 
redimensionar