Cifras e Tablaturas
Smallpools

Smallpools

Djs And Porsches

Cifras Cancelar Versão de Impressão
cifras

Smallpools - Djs And Porsches

fixar na tela  
Exibindo: vídeo-aula ver clipes redimensionar
  
Intro 
e|------------------------------------|------------------------------------| 
A|------------------------------------|------------------------------------| 
D|---------------16----------------16-|---------------16----------------16-| 
G|14-----14---14-----17-----17---17---|14-----14---14-----17-----17---17---| 
B|------------------------------------|------------------------------------| 
E|------------------------------------|------------------------------------| 

Verse 
(repeat x2) 
I...                                   chase 
e|------------------------------------|------------------------------------| 
A|------------------------------------|------------------------------------| 
D|---------------16----------------16-|---------------16----------------16-| 
G|14-----14---14-----17-----17---17---|14-----14---14-----17-----17---17---| 
B|------------------------------------|------------------------------------| 
E|------------------------------------|------------------------------------| 


e|------------------------------------|--------------------------------------| 
A|17-----17---17-----15-----15---15---|--------------------------------------| 
D|---------------16----------------14-|16-----16---16------14---14-----------| 
G|------------------------------------|---------------17-------------16---16-| 
B|------------------------------------|--------------------------------------| 
E|------------------------------------|--------------------------------------| 

Chorus 
C                             Em 
But it's a wonderful feeling, And I built it this way 
G                              D            
So I could cherish the heartache,  
                C               Em 
When all of the DJs and Porsches 
  G        D 
Steal her away 


e|---7---8-7------7---8-7-|---7---8-7--------7-----| 
A|10-----------10---------|10-----------10-----8---| 
D|------------------------|------------------------| (x4) 
G|------------------------|------------------------| 
B|------------------------|------------------------| 
E|------------------------|------------------------| 

Verse 
e|----------------------------|----------------------------| 
A|----------------------------|----------------------------| 
D|2-0---2-2-2-2-2-0---2-2-2-2-|2-0---2-2-2-2-2-0---2-2-2-2-| (x2) 
G|----------------------------|----------------------------| 
B|----------------------------|----------------------------| 
E|----------------------------|----------------------------| 

e|7-------7------10-10---10---|---7---7------10-10---10---| 
A|8-------8------8--8----8----|---8---8------8--8----8----| 
D|7-------7------7--7----7----|---7---7------7--7----7----| (x2) 
G|9-------9------9--9----9----|---9---9------9--9----9----| 
B|----------------------------|---------------------------| 
E|----------------------------|---------------------------| 

Chorus 
(repeat x3) 
e|------------------------------------|------------------------------------| 
A|------------------------------------|------------------------------------| 
D|---------------16----------------16-|---------------16----------------16-| 
G|14-----14---14-----17-----17---17---|14-----14---14-----17-----17---17---| 
B|------------------------------------|------------------------------------| 
E|------------------------------------|------------------------------------| 

e|------------------------------------|--------------------------------------| 
A|17-----17---17-----15-----15---15---|--------------------------------------| 
D|---------------16----------------14-|16-----16---16------14---14-----------| 
G|------------------------------------|---------------17-------------16---16-| 
B|------------------------------------|--------------------------------------| 
E|------------------------------------|--------------------------------------| 


e|---7---8-7------7---8-7-|---7---8-7--------7-----| 
A|10-----------10---------|10-----------10-----8---| 
D|------------------------|------------------------| (x4) 
G|------------------------|------------------------| 
B|------------------------|------------------------| 
E|------------------------|------------------------| 

Bridge 
(repeat x2!) 
e|------------------------|------------------------| 
A|---3---5---3-5---3-3----|---3---5---3-5----------| 
D|------------------------|------------------------| 
G|------------------------|------------------------| 
B|------------------------|------------------------| 
E|------------------------|------------------------| 

e|------------------------|------------------------------| 
A|---3---5---3-5---3-3----|8-8---8---8-8---7-7---7---7-7-| 
D|------------------------|------------------------------| 
e|------------------------|------------------------------| 
B|------------------------|------------------------------| 
E|------------------------|------------------------------| 

Chorus 
C                             Em 
But it's a wonderful feeling, And I built it this way 
G                              D            
So I could cherish the heartache,  
                C               Em 
When all of the DJs and Porsches 
  G        D 
Steal her away 

e|---7---8-7------7---8-7-|---7---8-7--------7-----| 
A|10-----------10---------|10-----------10-----8---| 
D|------------------------|------------------------| (x4) 
G|------------------------|------------------------| 
B|------------------------|------------------------| 
E|------------------------|------------------------| 

e|----------------------------|----------------------------| 
A|----------------------------|----------------------------| 
D|2-0---2-2-2-2-2-0---2-2-2-2-|2-0---2-2-2-2-2-0---2-2-2-2-| 
G|----------------------------|----------------------------| 
B|----------------------------|----------------------------| 
E|----------------------------|----------------------------| 
  

cifra enviadasem correções
enviado porenviada por:joaoewerton
top 5 | smallpools
top rock'n roll
Outras músicas do artista letras do(a) Smallpools
Top cifras »Top artistas »
Petaxxon Comunicação Online
Cifras.com.br - Melhor e mais completo site de cifras e tablaturas do Brasil
Mais de 1 milhão de acordes de músicas cadastradas desde 2003
As informações contidas no nosso site são colaborações de seus usuários e podem conter erros, sendo assim, não nos responsabilizamos sobre nenhuma destas.
close
menos
mais
close
Cor dos acordes:

Cor da letra:

 

save
close
close
 
redimensionar