Cifras e Tablaturas
Smile Empty Soul

Smile Empty Soul

All In My Head

Cifras Cancelar Versão de Impressão
cifras

Smile Empty Soul - All In My Head

fixar na tela  
Exibindo: vídeo-aula ver clipes redimensionar
  
Intro 
eb|---------------------------------------------------------------------------------| 
Bb|---------------------------------------------------------------------------------| 
Gb|-----5--7------5--7------5--7------5--7------5--7------5--7------5--7------5--7--| 
Db|-0----------0--------0----------0--------0----------0--------0----------0--------| 
Ab|-0---3-/5---0--3-/5--0---3-/5---0--3-/5--0---3-/5---0--3-/5--0---3-/5---0--3-/5--| 
Db|-0---0------0--0-----0---0------0--0-----0---0------0--0-----0---0------0--0-----| 

Verse 
eb|-------------------------------------------------| 
Bb|-------------------------------------------------| 
Gb|-------------------------------------------------| 
Db|-------0-----------0-----------0-----------0-----| 
Ab|----0-----0-----0-----0-----0-----0-----0-----0--| 
Db|-0----------0------------0----------0------------| 

eb|-------------------------------------------------| 
Bb|-------------------------------------------------| 
Gb|-------------------------------------------------| 
Db|-------0-----------0-----------0-----------0-----| 
Ab|----8-----8-----8-----8-----3-----3-----10----10-| 
Db|-8----------8------------3----------10-----------| 

eb|-------------------------------------------------| 
Bb|-------------------------------------------------| 
Gb|-------------------------------------------------| 
Db|-------0-----------0-----------0-----------0-----| 
Ab|----0-----0-----0-----0-----0-----0-----0-----0--| 
Db|-0----------0------------0----------0------------| 

eb|-------------------------------------------------| 
Bb|-------------------------------------------------| 
Gb|-------------------------------------------------| 
Db|-------0-----------0-----------0-----------xxxx--| 
Ab|----8-----8-----8-----8-----3-----3-----10-xxxx--| 
Db|-8----------8------------3----------10-----xxxx--| 

Chorus 
eb|-0-------0--0---------------------0-------0--0---------------------| 
Bb|-3-------7-15---------------------3-------7-15---------------------| 
Gb|-2-------6-14---------------------2-------6-14---------------------| 
Db|-0-------0--0----0-------0---0----0-------0--0----0-------0---0----| 
Ab|-0-------0--0----8-------3--10----0-------0--0----8-------3--10----| 
Db|-0-------0--0----8-------3--10----0-------0--0----8-------3--10----| 
                               ^ 10's 

Instrumental 
eb|-----------------------------------------| 
Bb|-----------------------------------------| 
Gb|-----5--7------5--7------5--7------5--7--| 
Db|-0----------0--------0----------0--------| 
Ab|-0---3-/5---0--3-/5--0---3-/5---0--3-/5--| 
Db|-0---0------0--0-----0---0------0--0-----| 

Verse 
eb|-------------------------------------------------| 
Bb|-------------------------------------------------| 
Gb|-------------------------------------------------| 
Db|-------0-----------0-----------0-----------0-----| 
Ab|----0-----0-----0-----0-----0-----0-----0-----0--| 
Db|-0----------0------------0----------0------------| 

eb|-------------------------------------------------| 
Bb|-------------------------------------------------| 
Gb|-------------------------------------------------| 
Db|-------0-----------0-----------0-----------0-----| 
Ab|----8-----8-----8-----8-----3-----3-----10----10-| 
Db|-8----------8------------3----------10-----------| 

eb|-------------------------------------------------| 
Bb|-------------------------------------------------| 
Gb|-------------------------------------------------| 
Db|-------0-----------0-----------0-----------0-----| 
Ab|----0-----0-----0-----0-----0-----0-----0-----0--| 
Db|-0----------0------------0----------0------------| 

eb|-------------------------------------------------| 
Bb|-------------------------------------------------| 
Gb|-------------------------------------------------| 
Db|-------0-----------0-----------0-----------xxxx--| 
Ab|----8-----8-----8-----8-----3-----3-----10-xxxx--| 
Db|-8----------8------------3----------10-----xxxx--| 

Chorus 
eb|-0-------0--0---------------------0-------0--0---------------------| 
Bb|-3-------7-15---------------------3-------7-15---------------------| 
Gb|-2-------6-14---------------------2-------6-14---------------------| 
Db|-0-------0--0----0-------0---0----0-------0--0----0-------0---0----| 
Ab|-0-------0--0----8-------3--10----0-------0--0----8-------3--10----| 
Db|-0-------0--0----8-------3--10----0-------0--0----8-------3--10----| 
                               ^ 10's 



************************************ 

| x   Dead note 
| /   Slide up 

************************************ 
  

top 5 | smile empty soul
top rock alternativo
Outras músicas do artista letras do(a) Smile Empty Soul
Top cifras »Top artistas »
Petaxxon Comunicação Online
Cifras.com.br - Melhor e mais completo site de cifras e tablaturas do Brasil
Mais de 1 milhão de acordes de músicas cadastradas desde 2003
As informações contidas no nosso site são colaborações de seus usuários e podem conter erros, sendo assim, não nos responsabilizamos sobre nenhuma destas.
close
menos
mais
close
Cor dos acordes:

Cor da letra:

 

save
close
close
 
redimensionar