Cifras e Tablaturas
Smile Empty Soul

Smile Empty Soul

Just One Place

Cifras Cancelar Versão de Impressão
cifras

Smile Empty Soul - Just One Place

fixar na tela  
Exibindo: vídeo-aula ver clipes redimensionar
  
Intro 
D#|----------------------------------------------------------------------| 
A#|----------------------------------------------------------------------| 
F#|---------------------------------------------------------------0------| 
C#|-------0---0---0---0---0---0---0---0---0---0---0---0---0---0-----0----| 
G#|----------------------------------------------------------------------| 
C#|-3-5-7---7---7---7---7---7---7---7---8---8---8---8---3---3---10----10-| 

D#|-----------------------------------------------------------------| 
A#|-----------------------------------------------------------------| 
F#|-----------------------------------------------------------------| 
C#|---0---0---0---0---0---0---0-------0---0---0---0---0---0---0-----| 
G#|-----------------------------------------------------------------| 
C#|-0---0---0---0---0---0---0---5-3-0---0---0---0---0---0---0---3-5-| 

Verse 
D#|-----------------------------------------------------------------| 
A#|-----------------------------------------------------------------| 
F#|-----------------------------------------------------------------| 
C#|---0---0---0---0---0---0---0---0---0---0---0---0---0---0---0---0-| 
G#|-----------------------------------------------------------------| 
C#|-7---7---7---7---7---7---7---7---8---8---8---8---3---3---3---3---| 

D#|-----------------------------------------------------------------| 
A#|-----------------------------------------------------------------| 
F#|-----------------------------------------------------------------| 
C#|---0---0---0---0---0---0---0-------0---0---0---0---0---0---0-----| 
G#|-----------------------------------------------------------------| 
C#|-0---0---0---0---0---0---0---5-3-0---0---0---0---0---0---0---3-5-| 

D#|------------------------------------------------------------------| 
A#|------------------------------------------------------------------| 
F#|-----------------------------------------------------------0------| 
C#|---0---0---0---0---0---0---0---0---0---0---0---0---0---0-----0----| 
G#|------------------------------------------------------------------| 
C#|-7---7---7---7---7---7---7---7---8---8---8---8---3---3---10----10-| 

Chorus 
D#|-0-------0-------0-------3---0---0-------3-------0-------3---0---| 
A#|-6-------6-------1-------5---3---0-------5-------1-------5---3---| 
F#|-7-------7-------2-------5---4---2-------5-------2-------5---4---| 
C#|-0-------8-------3-------5---5---2-------5-------3-------5---5---| 
G#|-0-------8-------3-------3---5---0-------3-------3-------3---5---| 
C#|-0-------8-------3-----------5-------------------3-----------5---| 

After Chorus 
D#|-0-------3-----------0-----------| 
A#|-0-------5-----------3-----------| 
F#|-2-------5-----------2-----------| 
C#|-2-------5-----3-0---------------| 
G#|-0-------3-----3-0---------------| 
C#|---------------3-0---------------| 

Instrumental 
D#|----------------------------------------------------------------------| 
A#|----------------------------------------------------------------------| 
F#|---------------------------------------------------------------0------| 
C#|-------0---0---0---0---0---0---0---0---0---0---0---0---0---0-----0----| 
G#|----------------------------------------------------------------------| 
C#|-3-5-7---7---7---7---7---7---7---7---8---8---8---8---3---3---10----10-| 

D#|-----------------------------------------------------------------| 
A#|-----------------------------------------------------------------| 
F#|-----------------------------------------------------------------| 
C#|---0---0---0---0---0---0---0-------0---0---0---0---0---0---0-----| 
G#|-----------------------------------------------------------------| 
C#|-0---0---0---0---0---0---0---5-3-0---0---0---0---0---0---0---3-5-| 

Verse 
D#|-----------------------------------------------------------------| 
A#|-----------------------------------------------------------------| 
F#|-----------------------------------------------------------------| 
C#|---0---0---0---0---0---0---0---0---0---0---0---0---0---0---0---0-| 
G#|-----------------------------------------------------------------| 
C#|-7---7---7---7---7---7---7---7---8---8---8---8---3---3---3---3---| 

D#|-----------------------------------------------------------------| 
A#|-----------------------------------------------------------------| 
F#|-----------------------------------------------------------------| 
C#|---0---0---0---0---0---0---0-------0---0---0---0---0---0---0-----| 
G#|-----------------------------------------------------------------| 
C#|-0---0---0---0---0---0---0---5-3-0---0---0---0---0---0---0---3-5-| 

D#|------------------------------------------------------------------| 
A#|------------------------------------------------------------------| 
F#|-----------------------------------------------------------0------| 
C#|---0---0---0---0---0---0---0---0---0---0---0---0---0---0-----0----| 
G#|------------------------------------------------------------------| 
C#|-7---7---7---7---7---7---7---7---8---8---8---8---3---3---10----10-| 

Chorus 
D#|-0-------0-------0-------3---0---0-------3-------0-------3---0---| 
A#|-6-------6-------1-------5---3---0-------5-------1-------5---3---| 
F#|-7-------7-------2-------5---4---2-------5-------2-------5---4---| 
C#|-0-------8-------3-------5---5---2-------5-------3-------5---5---| 
G#|-0-------8-------3-------3---5---0-------3-------3-------3---5---| 
C#|-0-------8-------3-----------5-------------------3-----------5---| 

Bridge 
D#|-0-------3-----------------------|-0-------3-----------0-----------| 
A#|-0-------5-------3---------------|-0-------5-----------3-----------| 
F#|-2-------5-------2---------------|-2-------5-----------2-----------| 
C#|-2-------5-----3-0---------------|-2-------5-----3-0---------------| 
G#|-0-------3-----3-0---------------|-0-------3-----3-0---------------| 
C#|---------------3-0---------------|---------------3-0---------------| 

Chorus 
D#|-0-------0-------0-------3---0---0-------3-------0-------3---0---| 
A#|-6-------6-------1-------5---3---0-------5-------1-------5---3---| 
F#|-7-------7-------2-------5---4---2-------5-------2-------5---4---| 
C#|-0-------8-------3-------5---5---2-------5-------3-------5---5---| 
G#|-0-------8-------3-------3---5---0-------3-------3-------3---5---| 
C#|-0-------8-------3-----------5-------------------3-----------5---| 

Outro 
D#|-0-------3-------0-------3---0---0-------| 
A#|-0-------5-------1-------5---3---0-------| 
F#|-2-------5-------2-------5---4---2-------| 
C#|-2-------5-------3-------5---5---2-------| 
G#|-0-------3-------3-------3---5---0-------| 
C#|-----------------3-----------5-----------| 
  

top 5 | smile empty soul
top rock alternativo
Outras músicas do artista letras do(a) Smile Empty Soul
Top cifras »Top artistas »
Petaxxon Comunicação Online
Cifras.com.br - Melhor e mais completo site de cifras e tablaturas do Brasil
Mais de 1 milhão de acordes de músicas cadastradas desde 2003
As informações contidas no nosso site são colaborações de seus usuários e podem conter erros, sendo assim, não nos responsabilizamos sobre nenhuma destas.
close
menos
mais
close
Cor dos acordes:

Cor da letra:

 

save
close
close
 
redimensionar