Cifras e Tablaturas
So I Watch You From Afar

So I Watch You From Afar

Set Guitars To Kill

Cifras Cancelar Versão de Impressão Print

So I Watch You From Afar - Set Guitars To Kill

Tom:

  • 0:00 / 0:00
  			

RIFF 1 

Consider making right note duration 


D|------------------------------------|---------------------------------------| 
A|------------------------------------|---------------------------------------| 
F|-13-14-16-14h16h14-13-14-16-14h16h14|-12-14-16-14h16h14-12-14-16-14h16h14---| 
C|------------------------------------|---------------------------------------| 
G|------------------------------------|---------------------------------------| 
C|------------------------------------|---------------------------------------|   (2x) 


D|------------------------------------|---------------------------------------| 
A|------------------------------------|----------------------15---------------| 
F|----14-16-14h16h14----14-16-14h16---|----14-16-14h16h14-16----16-14h16h14---| 
C|-12----------------12---------------|---------------------------------------| 
G|------------------------------------|-15------------------------------------| 
C|------------------------------------|---------------------------------------| 

After that: first section of RIFF 1 x4, third section, fourth section. 
Then repeat the whole riff twice. 

D|---------| 
A|-10-10---| 
F|-11-11---| 
C|---------|  (32x) 
G|---------| 
C|---------| 


SOLO 

Make some guitar noise for one and a half bars, then slide through the fretboard. 
Then play this twice using staccato: 


D|----------15-17-19----------15-17-19----------15-17-19-19-| 
A|-15-17-19----------15-17-19----------15-17-19-------------| 
F|----------------------------------------------------------| 
C|----------------------------------------------------------| 
G|----------------------------------------------------------| 
C|----------------------------------------------------------| 

 
D|-19\15-19\15------------------------------------------------------| 
A|-------------15-15/19-19-19-19\15-15-15/19-19-19-----15--15--15---| 
F|-----------------------------------------------------16--16--16---| 
C|------------------------------------------------------------------| 
G|------------------------------------------------------------------| 
C|------------------------------------------------------------------| 

After solo: 

D|-------------------------------------|-17--17--17--17-| 
A|-17--15--15---19--19--19---20--20--20|-17--17--17--17-| 
F|-16--16--16---17--17--17---19--19--19|----------------| (5x) 
C|-------------------------------------|----------------| 
G|-------------------------------------|----------------| 
C|-------------------------------------|----------------| 

The next part is too hard to figure out, it sounds like very fast tremolo picking at the  
19th fret on 1st string with some additional noise 

Then play this twice: 

..............x3..............x1.. 
D|------17----------15------|----| 
A|-19--------19-17-------17-|-15-| 
F|--------------------------|----| 
C|--------------------------|----| 
G|--------------------------|----| 
C|--------------------------|----| 

RIFF 3 

 
D|-------------------------------|-------------|----------------| 
A|-------------------------------|-------------|-15-------------| 
F|-------14-16-14----------------|-16-14-------|----16-14-14/16-| 
C|-14-17----------17-14-17-12-12-|-------17-14-|----------------| 
G|-------------------------------|-------------|----------------| 
C|-------------------------------|-------------|----------------| 

 
D|-------------------------------|-------------|--------------------| 
A|-------------------------------|-------------|-15-------17--------| 
F|-------14-16-14----------------|-16-14-------|--------------------| 
C|-14-17----------17-14-17-12-12-|-------17-14-|--------------------| 
G|-------------------------------|-------------|--------------------| 
C|-------------------------------|-------------|--------------------| 

Play it twice. 

GUITAR 2 

INTRO (distortion) 

D|------------------| 
A|------------------| 
F|------------------| 
C|-2---2---2---2-0--| 
G|-2---2---2---2-0--| 
C|-2---2---2---2-0--| 


RIFF1 

Repeat the first bar 3 times,then play the second. Then repeat the whole riff. 

 
D|-------------------------------|-------------------------------------------------| 
A|-17\12-12----12-17\12-12----12-|-15-15-15-15-13-13-13-13-17-17-17-17-12-12-12-12-| 
F|----------14-------------14----|-------------------------------------------------| 
C|-------------------------------|-------------------------------------------------| 
G|-------------------------------|-------------------------------------------------| 
C|-------------------------------|-------------------------------------------------| 

Bridge 

D|---------| 
A|-10-10---| 
F|-11-11---| 
C|---------|  (8x) 
G|---------| 
C|---------| 

When all other instruments stop for a few seconds: 

D|----------------------------------| 
A|-12-12---12-12-----12--15--12-----| 
F|-11-11---11-11-----14--14--14-----| (2x) 
C|----------------------------------| 
G|----------------------------------| 
C|----------------------------------| 


RIFF 2 
Played throughout the solo and after the short pause again 

D|-----------------------------------------| 
A|-----------------------------------------| 
F|-11-9-----9-11---------14-14-16-14-------| 
C|--9-9-----9--9---------12-12-12-12-------|  (3x) 
G|-----------------------------------------| 
C|-----------------------------------------| 

D|-----------------------------------------| 
A|-----------------------------------------| 
F|-11-9-----9-11---------14---14---14---14-| 
C|--9-9-----9--9---------12---12---12---12-| 
G|-----------------------------------------| 
C|-----------------------------------------| 

RIFF 3 
Repeat almost until ENDING 

D|---------------------------------------| 
A|---------------------------------------| 
F|-16~--14~--16~--14~--16~--14~--12~--9~-| 
C|--x----x----x----x----x----x----x---x--| 
G|-14~--12~--14~--12~--14~--12~--10~--7~-| 
C|---------------------------------------| 

right before ending repeat this several times: 

D|-------| 
A|-------| 
F|-/21---| 
C|---x---| 
G|-/19---| 
C|-------| 

ENDING (distortion) 

..strumming....E.E.E.E.. 
D|---|---|---|---------| 
A|---|---|---|---------| 
F|---|---|---|---------| 
C|-2-|-2-|-2-|-2-2-0-0-| 
G|-2-|-2-|-2-|-2-2-0-0-| 
C|-2-|-2-|-2-|-2-2-0-0-| 

 
    	

enviado porenviado por: deivcavalcanti
cifra enviadaCorrigida por: sem correções
logo top cifrasComente
ico música do artistaMúsicas deste artista
ico curtiuCurtiu?
ico destaqueDestaque
Petaxxon Comunicação Online

Cifras.com.br - Melhor e mais completo site de cifras e tablaturas do Brasil Mais de 1 milhão de acordes de músicas cadastradas desde 2003
As informações contidas no nosso site são colaborações de seus usuários e podem conter erros, sendo assim, não nos responsabilizamos sobre nenhuma destas.

close
menos
mais
close
Cor dos acordes:

Cor da letra:

close
Alinhar acordes a direita Alinhar acordes a esquerda Alinhar acordes em baixo Alinhar acordes no topo
close
  Mostrar todos os acordes Esconder acordes muito fáceis Esconder acordes fáceis Esconder acordes intermediários
redimensionar
glossário