Cifras e Tablaturas
Sons Of The East

Sons Of The East

Head For Home

Cifras Cancelar Versão de Impressão

Sons Of The East - Head For Home

Tom: C

  			
Intro 
    C              G               Am 
e|--------0--------------3-----------------0--------------0------------| 
B|--1--------1-----0--------0------0h1--------1-----1--------1---------| 
G|---------------------------------------------------------------------| 
D|--2--2--------2--0--0--------0---0h2--2--------2--2--2--------2------| 
A|---------------------------------------------------------------------| 
E|---------------------------------------------------------------------| 
    
    F                C              G 
e|----------1--------------0--------------3---------------3------------| 
B|--1----------1-----1--------1-----0--------0-----0h1-------1---------| 
G|---------------------------------------------------------------------| 
D|--2h3--3--------3--2--2--------2--0--0--------0--0---0--------0------| 
A|---------------------------------------------------------------------| 
E|---------------------------------------------------------------------| 

Verse 
             Time  moves    so     slowww....                   And he.. 
e|--------0--------------3-----------------0--------------0------------| 
B|--1--------1-----0--------0------0h1--------1-----1--------1---------| 
G|---------------------------------------------------------------------| 
D|--2--2--------2--0--0--------0---0h2--2--------2--2--2--------2------| 
A|---------------------------------------------------------------------| 
E|---------------------------------------------------------------------| 

    sees    it       in   his       smile 
e|----------1--------------0--------------3---------------3------------| 
B|--1----------1-----1--------1-----0--------0-----0h1-------1---------| 
G|---------------------------------------------------------------------| 
D|--2h3--3--------3--2--2--------2--0--0--------0--0---0--------0------| 
A|---------------------------------------------------------------------| 
E|---------------------------------------------------------------------| 

          When he  breathes  he  grows....                   And hes.. 
e|--------0--------------3-----------------0--------------0------------| 
B|--1--------1-----0--------0------0h1--------1-----1--------1---------| 
G|---------------------------------------------------------------------| 
D|--2--2--------2--0--0--------0---0h2--2--------2--2--2--------2------| 
A|---------------------------------------------------------------------| 
E|---------------------------------------------------------------------| 

    done    so       far   some     while 
e|----------1--------------0--------------3---------------3------------| 
B|--1----------1-----1--------1-----0--------0-----0h1-------1---------| 
G|---------------------------------------------------------------------| 
D|--2h3--3--------3--2--2--------2--0--0--------0--0---0--------0------| 
A|---------------------------------------------------------------------| 
E|---------------------------------------------------------------------| 

Pre-Chorus 
          He   knows     he       knows                    That it's... 
e|--------1--------------1----------------0---------------0------------| 
B|--1--------1-----1--------1-----1----------1-----1h3-------3---------| 
G|---------------------------------------------------------------------| 
D|--3--3--------3--3--3--------3--0h2--2--------2--2---2--------2------| 
A|---------------------------------------------------------------------| 
E|---------------------------------------------------------------------| 

    time....            to  move   along 
e|--------3---------------3--------------0----------------0------------| 
B|--0--------0-----0h1-------1-----1--------1-----1h3--------3---------| 
G|---------------------------------------------------------------------| 
D|--0--0--------0--0---0--------0--2--2--------2--2---2---------2------| 
A|---------------------------------------------------------------------| 
E|---------------------------------------------------------------------| 

          He   knows     he       knows                    That it's... 
e|--------1--------------1----------------0---------------0------------| 
B|--1--------1-----1--------1-----1----------1-----1h3-------3---------| 
G|---------------------------------------------------------------------| 
D|--3--3--------3--3--3--------3--0h2--2--------2--2---2--------2------| 
A|---------------------------------------------------------------------| 
E|---------------------------------------------------------------------| 

    time....          to right the wrong  
e|--------3---------------3--------------0----------------0------------| 
B|--0--------0-----0h1-------1-----1--------1-----1h3--------3---------| 
G|---------------------------------------------------------------------| 
D|--0--0--------0--0---0--------0--2--2--------2--2---2---------2------| 
A|---------------------------------------------------------------------| 
E|---------------------------------------------------------------------| 

Chorus 
             As  he  looks out on the occceeaaannside 
e|----------0--------------1--------------0--------------3-------------| 
B|--0h1--------1-----1--------1-----1--------1-----0--------0----------| 
G|---------------------------------------------------------------------| 
D|--0h2--2--------2--3--3--------3--2--2--------2--0--0--------0-------| 
A|---------------------------------------------------------------------| 
E|---------------------------------------------------------------------| 

             And the light begins to fade 
e|----------0--------------1--------------0--------------3-------------| 
B|--0h1--------1-----1--------1-----1--------1-----0--------0----------| 
G|---------------------------------------------------------------------| 
D|--0h2--2--------2--3--3--------3--2--2--------2--0--0--------0-------| 
A|---------------------------------------------------------------------| 
E|---------------------------------------------------------------------| 

          Where she felt wind on the riissiing     tide,    head for... 
e|----------0--------------1--------------0--------------3-------------| 
B|--0h1--------1-----1--------1-----1--------1-----0--------0----------| 
G|---------------------------------------------------------------------| 
D|--0h2--2--------2--3--3--------3--2--2--------2--0--0--------0-------| 
A|---------------------------------------------------------------------| 
E|---------------------------------------------------------------------| 

    home,                  or drift away 
e|----------0--------------1--------------0---------------0------------| 
B|--0h1--------1-----1--------1-----1--------1-----1h3-------3---------| 
G|---------------------------------------------------------------------| 
D|--0h2--2--------2--3--3--------3--2--2--------2--2---2--------2------| 
A|---------------------------------------------------------------------| 
E|---------------------------------------------------------------------| 

          Head for home, or drift away 
e|--------0--------------1--------------0---------------0--------------| 
B|--1--------1-----1--------1-----1--------1-----1---------1-----------| 
G|---------------------------------------------------------------------| 
D|--2--2--------2--3--3--------3--2--2--------2--2---2--------2--------| 
A|---------------------------------------------------------------------| 
E|---------------------------------------------------------------------| 



************************************ 

| h   Hammer-on 

************************************ 
    	
fixar
fixar inscrever-se

enviado porenviado por: renejunior
cifra enviadaCorrigida por: sem correções
logo top cifrasComente
ico música do artistaMúsicas deste artista
ico curtiuCurtiu?
ico destaqueDestaque
Petaxxon Comunicação Online

Cifras.com.br - Melhor e mais completo site de cifras e tablaturas do Brasil Mais de 1 milhão de acordes de músicas cadastradas desde 2003
As informações contidas no nosso site são colaborações de seus usuários e podem conter erros, sendo assim, não nos responsabilizamos sobre nenhuma destas.

close
menos
mais
close
Cor dos acordes:

Cor da letra:

close
Alinhar acordes a direita Alinhar acordes a esquerda Alinhar acordes em baixo Alinhar acordes no topo
close
  Mostrar todos os acordes Esconder acordes muito fáceis Esconder acordes fáceis Esconder acordes intermediários
redimensionar
glossário