Cifras e Tablaturas
Soraya Moraes

Soraya Moraes

A presença de Deus

Cifras Cancelar Versão de Impressão

Soraya Moraes - A presença de Deus

Tom: E

  			TABLATURA SORAYA MORAES 
 
Presença De Deus 
 
Fazer solo junto com teclado 
 
E -------------------------------------------------------------------------------------------- 
A -------------------------------------------------------------------------------------------- 
D -------------------------------------------------------------------------------------------- 
G ---1---2---2---4---6---4----------------------------------------------------------------- 
B ------------------------------7---5---4---5---5---4---2---4---5---7---9---7---9------- 
E --------------------------------------------------------------------------------------------- 
 
Continuação 
 
E --------------------------------------------------------------------------------------------- 
A --------------------------------------------------------------------------------------------- 
D --------------------------------------------------------------------------------------------- 
G --------------------------------------------------------------------------------------------- 
B ---10---12---14---12-------------------------------------------------------5---7-------- 
E ---------------------------14---16---14---12---11---9---7---4---5---4----------------- 
 
 

    	
fixar
fixar inscrever-se

enviado porenviado por: ducamusico
cifra enviadaCorrigida por: sem correções
logo top cifrasComente
ico música do artistaMúsicas deste artista
ico curtiuCurtiu?
ico destaqueDestaque
Petaxxon Comunicação Online

Cifras.com.br - Melhor e mais completo site de cifras e tablaturas do Brasil Mais de 1 milhão de acordes de músicas cadastradas desde 2003
As informações contidas no nosso site são colaborações de seus usuários e podem conter erros, sendo assim, não nos responsabilizamos sobre nenhuma destas.

close
menos
mais
close
Cor dos acordes:

Cor da letra:

close
Alinhar acordes a direita Alinhar acordes a esquerda Alinhar acordes em baixo Alinhar acordes no topo
close
  Mostrar todos os acordes Esconder acordes muito fáceis Esconder acordes fáceis Esconder acordes intermediários
redimensionar
glossário