Cifras e Tablaturas
Sound City Players

Sound City Players

From Can To Can't

Cifras Cancelar Versão de Impressão Print

Sound City Players - From Can To Can't

Tom:

  • 0:00 / 0:00
  			

  Intro/Verse 1 
E|---------------------------------------------------| 
B|---------------------------------------------------| 
G|----2-----2-----2-----2-----2-----2-----2-----2----| 
D|------4-----4-----4-----4-----4-----4-----4-----4--| 
A|--------------0-----2-----5-----4-----3-----2------| 
E|--2-----4------------------------------------------| 

  Pre-chorus (0:55) 
E|--------2-----------0------------------------------| 
B|------3---3-------0--------------------------------| 
G|----2-------2---2----------------------------------| 
D|--0-----------2------------------------------------| 
A|---------------------------------------------------| 
E|---------------------------------------------------| 

  Chorus (1:01) 
E|---------------------------------2-----------0-----| 
B|------2------2-----2-----0-----0---0-------0-------| 
G|----2------2-----2-----2-----2-------2---2---------| 
D|---------------------------0-----------2-----------| 
A|---------------0-----2-----------------------------| 
E|--2-----4------------------------------------------| 

  Post-Chorus (1:22) 
  Guitar 1 
E|---------------------------------------------------| 
B|---------------------------------------------------| 
G|----2-----2-----2-----2----------------------------| 
D|------4-----4-----4-----4--------------------------| 
A|--------------0-----2------------------------------| 
E|--2-----4------------------------------------------| 

  Guitar 2 comes in at 1:33 
E|---------------------------------------------------| 
B|--------------7--5--5--4---------------------------| 
G|--------------7--6--5--4---------------------------| 
D|--4--6--7--9--x--x--x--x---------------------------| 
A|--x--x--x--x--5--4--3--2---------------------------| 
E|--2--4--5--7---------------------------------------| 

  Verse 2 (1:55) 
  Guitar 1 
E|---------------------------------------------------| 
B|---------------------------------------------------| 
G|----2-----2-----2-----2-----2-----2-----2-----2----| 
D|------4-----4-----4-----4-----4-----4-----4-----4--| 
A|--------------0-----2-----5-----4-----3-----2------| 
E|--2-----4------------------------------------------| 

  Guitar 2 
E|---------------------------------------------------| 
B|--------------7--5--5--4---------------------------| 
G|--------------7--6--5--4---------------------------| 
D|--4--6--7--9--x--x--x--x---------------------------| 
A|--x--x--x--x--5--4--3--2---------------------------| 
E|--2--4--5--7---------------------------------------| 

  Pre-chorus (2:16) 
  Guitar 1 
E|--------2-----------0------------------------------| 
B|------3---3-------0--------------------------------| 
G|----2-------2---2----------------------------------| 
D|--0-----------2------------------------------------| 
A|---------------------------------------------------| 
E|---------------------------------------------------| 

  Guitar 2 
E|---------------------------------------------------| 
B|---------------------------------------------------| 
G|--7-7-7-7-7-7-9-9-9-9-9-9--------------------------| 
D|--7-7-7-7-7-7-9-9-9-9-9-9--------------------------| 
A|--5-5-5-5-5-5-7-7-7-7-7-7--------------------------| 
E|---------------------------------------------------| 

  Chorus (2:21) 
  Guitar 1 
E|---------------------------------2-----------0-----| 
B|------2------2-----2-----0-----0---0-------0-------| 
G|----2------2-----2-----2-----2-------2---2---------| 
D|---------------------------0-----------2-----------| 
A|---------------0-----2-----------------------------| 
E|--2-----4------------------------------------------| 

  Guitar 2 
E|---------------------------------------------------| 
B|---------------------------------------------------| 
G|--11-10-9--8--7--(7)--9----------------------------| 
D|--x--x--x--x--x--(x)--9----------------------------| 
A|--9--8--7--6--5--(5)--7----------------------------| 
E|---------------------------------------------------| 

  Post-chorus (2:43) 
E|---------------------------------------------------| 
B|---------------------------------------------------| 
G|---------------------------------------------------| 
D|--4-x-x-x-6-x-x-x-7-x-x-x-9-x-x-x------------------| 
A|--4-x-x-x-6-x-x-x-7-x-x-x-9-x-x-x------------------| 
E|--2-x-x-x-4-x-x-x-5-x-x-x-7-x-x-x------------------| 

  Solo (2:54) will figure out later 
  Guitar 2 
E|---------------------------------------------------| 
B|---------------------------------------------------| 
G|---------------------------------------------------| 
D|--4-x-x-x-6-x-x-x-7-x-x-x-9-x-x-x------------------| 
A|--4-x-x-x-6-x-x-x-7-x-x-x-9-x-x-x------------------| 
E|--2-x-x-x-4-x-x-x-5-x-x-x-7-x-x-x------------------| 

  Guitar 2 (3:04) 
E|---------------------------------------------------| 
B|--------------7--5--5--4---------------------------| 
G|--------------7--6--5--4---------------------------| 
D|--4--6--7--9--x--x--x--x---------------------------| 
A|--x--x--x--x--5--4--3--2---------------------------| 
E|--2--4--5--7---------------------------------------| 

  Pre-Chorus (3:45) 
E|---------------------------------------------------| 
B|---------------------------------------------------| 
G|--7-7-7-7-7-7-9-9-9-9-9-9--------------------------| 
D|--7-7-7-7-7-7-9-9-9-9-9-9--------------------------| 
A|--5-5-5-5-5-5-7-7-7-7-7-7--------------------------| 
E|---------------------------------------------------| 

  Chorus 
  Guitar 1 (3:50) 
E|---------------------------------2-----------0-----| 
B|------2------2-----2-----0-----0---0-------0-------| 
G|----2------2-----2-----2-----2-------2---2---------| 
D|---------------------------0-----------2-----------| 
A|---------------0-----2-----------------------------| 
E|--2-----4------------------------------------------| 

  Guitar 2 (4:01) 
E|---------------------------------------------------| 
B|---------------------------------------------------| 
G|--11-10-9--8--7--(7)--9----------------------------| 
D|--x--x--x--x--x--(x)--9----------------------------| 
A|--9--8--7--6--5--(5)--7----------------------------| 
E|---------------------------------------------------| 

  Outro (4:23) 
  Guitar 1 
E|---------------------------------------------------| 
B|---------------------------------------------------| 
G|----2-----2-----2-----2-----2-----2-----2-----2----| 
D|------4-----4-----4-----4-----4-----4-----4-----4--| 
A|--------------0-----2-----5-----4-----3-----2------| 
E|--2-----4------------------------------------------| 

  Guitar 2 
E|---------------------------------------------------| 
B|--------------7--5--5--4---------------------------| 
G|--------------7--6--5--4---------------------------| 
D|--4--6--7--9--x--x--x--x---------------------------| 
A|--x--x--x--x--5--4--3--2---------------------------| 
E|--2--4--5--7---------------------------------------| 
    	

enviado porenviado por: VsWorld
cifra enviadaCorrigida por: sem correções
logo top cifrasComente
ico música do artistaMúsicas deste artista
ico curtiuCurtiu?
ico destaqueDestaque
Petaxxon Comunicação Online

Cifras.com.br - Melhor e mais completo site de cifras e tablaturas do Brasil Mais de 1 milhão de acordes de músicas cadastradas desde 2003
As informações contidas no nosso site são colaborações de seus usuários e podem conter erros, sendo assim, não nos responsabilizamos sobre nenhuma destas.

close
menos
mais
close
Cor dos acordes:

Cor da letra:

close
Alinhar acordes a direita Alinhar acordes a esquerda Alinhar acordes em baixo Alinhar acordes no topo
close
  Mostrar todos os acordes Esconder acordes muito fáceis Esconder acordes fáceis Esconder acordes intermediários
redimensionar
glossário