Cifras e Tablaturas
Cifras Cancelar Versão de Impressão
cifras

Spangle call Lilli line - Quiet Warp

fixar na tela  
Exibindo: vídeo-aula ver clipes redimensionar

Tom:

  
e|-------------------------------| 
B|-8-----------------------------| 
G|-7---------------11------------| 
D|-5-(Ring out)----9--(Ring out)-| x8 
A|-7---------------10------------| 
E|--------------7----------------| 

e|-----------------------------------------------| 
B|-13-------10-----------------------------------| 
G|-10---10--10----10---9--12----8---6--8-----5---| 
D|-10-------12----12------14----6------6--8--3---| x3 
A|------------------------10----8------8-----5---| 
E|-----------------------------------------------| 

e|------------------------------------| 
B|------------------------------------| 
G|-12-------14-------16-------17------| 
D|-12-------10-------12-------17------| x4 
A|-10----10-12----12-14----14-15---15-| 
E|------------------------------------| 

Don't play last note on final time round. 

e|-------------------------------| 
B|-8-----------------------------| 
G|-7---------------11------------| 
D|-5-(Ring out)----9--(Ring out)-| x4 
A|-7---------------10------------| 
E|--------------7----------------| 

e|-----------------------------------------------| 
B|-13-------10-----------------------------------| 
G|-10---10--10----10---9--12----8---6--8-----5---| 
D|-10-------12----12------14----6------6--8--3---| x3 
A|------------------------10----8------8-----5---| 
E|-----------------------------------------------| 

e|---------------------------------------------------------------12----------------------| 
B|--------------10-12----13----------10-12-13-15--------12----------15-13-12-13-12-------| 
G|-12--11----11-------11-12-11----11----------12--12-14----14-12-------------------14-12-| 
D|-12-----12-------------10----12-------------12--12-------------------------------------| x4 
A|-10---------------------------------------------14-------------------------------------| 
E|---------------------------------------------------------------------------------------| 

e|-------------------------------| 
B|-8-----------------------------| 
G|-7---------------11------------| 
D|-5-(Ring out)----9--(Ring out)-| x6 
A|-7---------------10------------| 
E|--------------7----------------| 
  

top 5 | spangle call lilli line
top rock'n roll
Outras músicas do artista letras do(a) Spangle call Lilli line
Top cifras »Top artistas »
Petaxxon Comunicação Online
Cifras.com.br - Melhor e mais completo site de cifras e tablaturas do Brasil
Mais de 1 milhão de acordes de músicas cadastradas desde 2003
As informações contidas no nosso site são colaborações de seus usuários e podem conter erros, sendo assim, não nos responsabilizamos sobre nenhuma destas.
close
menos
mais
close
Cor dos acordes:

Cor da letra:

 

save
close
close
 
redimensionar