Cifras e Tablaturas
Spazz

Spazz

Zodiac

Cifras Cancelar Versão de Impressão
cifras

Spazz - Zodiac

fixar na tela  
Exibindo: vídeo-aula ver clipes redimensionar

Tom:

  
e|-----------------| 
B|-----------------| 
G|-----------------| 
D|-0-5*-5*5*5*5*5*-| x4 
A|-0-5*-5*5*5*5*5*-| 
D|-0-5*-5*5*5*5*5*-| 

e|-------------| 
B|-------------| 
G|-------------| 
D|-8------8--5-| x5 
A|-8--5h6-8--5-|  
D|-8--5h6-8--5-| 

e|----------------------------------------------------------------------------------------------| 
B|----------------------------------------------------------------------------------------------| 
G|-7-7-7-7-7-7-4-4-4-4-4-4---------------------7-7-7-7-7-7-4-4-4-4-4-4-8------8------8------8-8-| 
D|-7-7-7-7-7-7-4-4-4-4-4-4-33-3-33-3-----------7-7-7-7-7-7-4-4-4-4-4-4-8------8------8------8-8-| x2 
A|-5-5-5-5-5-5-2-2-2-2-2-2-33-3-33-3-33-3-33-3-5-5-5-5-5-5-2-2-2-2-2-2-6-6666-6-6666-6-6666-6-6-| 
D|-------------------------33-3-33-3-33-3-33-3--------------------------------------------------| 
                                     ** * ** *                           ****   ****   **** 

e|-------------| 
B|-------------| 
G|-------------| 
D|-8------8--5-| x5 
A|-8--5h6-8--5-|  
D|-8--5h6-8--5-| 
  

top 5 | spazz
top rock'n roll
Outras músicas do artista letras do(a) Spazz
Top cifras »Top artistas »
Petaxxon Comunicação Online
Cifras.com.br - Melhor e mais completo site de cifras e tablaturas do Brasil
Mais de 1 milhão de acordes de músicas cadastradas desde 2003
As informações contidas no nosso site são colaborações de seus usuários e podem conter erros, sendo assim, não nos responsabilizamos sobre nenhuma destas.
close
menos
mais
close
Cor dos acordes:

Cor da letra:

 

save
close
close
 
redimensionar