Cifras e Tablaturas
Spiderbait

Spiderbait

Tonite

Cifras Cancelar Versão de Impressão

Spiderbait - Tonite

Tom: D

  			Standard Tuning 
 
 
 
intro: 
e|-----------------| 
B|-----------------| 
G|-----------------| 
D|-----------------| 
A|-7-7-7-7-7-7-7-7-| 
E|-0-0-0-0-0-0-0-0-| etc.. 
 
 
 
main: 
e|------------------------------------------------------------| 
B|------------------------------------------------------------| 
G|------------------------------------------------------------| 
D|-------6----------------------------------2~~---------------| 
A|-7-7-7----9-7-4-4-4-4-4-4-4-4-4-4-4-4-2h4---2-2-2-2-2-2-2-2-| 
E|-0-0-0-0--0-0-0-0-0-0-0-0-0-0-0-0-0-0-0---0-0-0-0-0-0-0-0-0-| 
					    *let the 2 on the D string ring 
 
 
lead bit: (not exact amount of notes, but you get the general idea) 
e|-7---7---7---9-7---7---7---9-7-| 
B|---9---9---9-----9---9---9-----| 
G|-------------------------------| 
D|-------------------------------| 
A|-------------------------------| 
E|-------------------------------| 
 
 
 
bridge 1: 
e|-----------------| 
B|-----------------| 
G|-9-9-9-9-9-9-9---| 
D|-----------------| 
A|-7-7-7-7-7-7-7---| x4 
E|---------------0-| 
 
 
 
bridge 2: 
e|-----------------| 
B|-----------------| 
G|-9-9-9-9-9-9-9---| 
D|-----------------| 
A|-7-7-7-7-7-7-7---| x4 
E|---------------0-| 
 
e|--------------------------------------------------------------|-----------------| 
B|--------------------------------------------------------------|-----------------| 
G|-9-9-9-9-9-9-9-9-14-14-14-14-14-14-14-14-14-14-14-14-14-14-16-|-9-9-9-9-9-9-9-9-| 
D|--------------------------------------------------------------|-----------------| 
A|-7-7-7-7-7-7-7-7-12-12-12-12-12-12-12-12-12-12-12-12-12-12-14-|-7-7-7-7-7-7-7-7-| x4 
E|--------------------------------------------------------------|-----------------| 
								*leave out this measure on 4th time 
 
e|----------------------------------------------| 
B|-9-9-10-10-9--7-7-9-9-7--5-5-7-7-5--5-5-7-7-5-| 
G|-9-9--9--9-9--7-7-7-7-7--5-5-5-5-5--5-5-5-5-5-| 
D|-9-9--9--9-9--7-7-7-7-7--5-5-5-5-5--5-5-5-5-5-| 
A|-7-7--7--7-7--5-5-5-5-5--3-3-3-3-3--3-3-3-3-3-| x2 
E|----------------------------------------------| 
 
e|---| 
B|---| 
G|-9-| 
D|-9-|  
A|-7-| x a lot 
E|---| 
 
 
 
the end: just a variation on the main part, with a touch of distortion, 
	 using less notes and not hitting the low E until the last note.  
	  
 
 
 
Simple. 
 
fixar
fixar inscrever-se

enviado porenviado por: anônimo
cifra enviadaCorrigida por: sem correções
logo top cifrasComente
ico música do artistaMúsicas deste artista
ico curtiuCurtiu?
ico destaqueDestaque
Petaxxon Comunicação Online

Cifras.com.br - Melhor e mais completo site de cifras e tablaturas do Brasil Mais de 1 milhão de acordes de músicas cadastradas desde 2003
As informações contidas no nosso site são colaborações de seus usuários e podem conter erros, sendo assim, não nos responsabilizamos sobre nenhuma destas.

close
menos
mais
close
Cor dos acordes:

Cor da letra:

close
Alinhar acordes a direita Alinhar acordes a esquerda Alinhar acordes em baixo Alinhar acordes no topo
close
  Mostrar todos os acordes Esconder acordes muito fáceis Esconder acordes fáceis Esconder acordes intermediários
redimensionar
glossário