Cifras e Tablaturas
Cifras Cancelar Versão de Impressão
cifras

Spin Doctors - Two princes

fixar na tela  
Exibindo: vídeo-aula ver clipes redimensionar

Tom:

  Intro: D Bm A G

Part A 

E|------------11-11\-0-0\--0-0-0\----------------11-11\-----0-0\-| 
B|------7-7---11-11\-5-5\--3-3-3\------7-7-X-X-X-11-11\-X-X-5-5\-| 
G|------7-7----------6-6\--4-5-4\------7-7-X-X-X--------X-X-6-6\-| 
D|------7-7-7--------7-7\--5-5-5\------7-7-X-X-X--------X-X-7-7\-| 
A|-7h9-----------------------------7h9---------------------------| 
E|---------------------------------------------------------------| 

E|-------0-0-0-0-0-0-0-| 
B|-X-X-X-3-3-3-3-3-3-3-| 
G|-X-X-X-4-4-4-4-4-4-4-| 
D|-X-X-X-5-5-5-5-5-5-5-| 
A|---------------------| 
E|---------------------| 

Refrão: G D G A


SOLO 

E|---------------------------------------------------------------| 
B|---------------------------------------------------------------| 
G|---------------------------------------------------------------| 
D|-----0-0-0--3b4--0-0-0-----0-0-0-3b4-0--0-0-0-0------0-0-0-0-0-| 
A|-3/5-------------------3/5-----------------------3/5-----------| 
E|---------------------------------------------------------------| 

E|-------------------------------------------------| 
B|-------------------------------------------------| 
G|------------------------------------5-0-5-5-5-7~-| 
D|-3~-0-0-0-----0-0-0-0-0-3~-0-5-0-7~--------------| 
A|----------3/5------------------------------------| 
E|-------------------------------------------------| 

E|----------------------------------------------------------------| 
B|---------------15-0-12-12-12-15-13b14----13b15-13-12------------| 
G|--------------------------------------14-------------14-10b11---| 
D|-12-14-12-14b16-----------------------------------------------12| 
A|----------------------------------------------------------------| 
E|----------------------------------------------------------------| 

E|---------------------------------| 
B|---------------------------------| 
G|---------------------------------| 
D|-12-12----------12-10b11-10b11---| 
A|-------14-14-14----------------12| 
E|---------------------------------| 

E|---------------------------------------------------------------| 
B|------------------------------15---------15--------------------| 
G|------------------12----14b16----12-14b16---16r14-12---12-14b16| 
D|---------12h14p12----12-----------------------------14---------| 
A|---12h14-------------------------------------------------------| 
E|15-------------------------------------------------------------| 

E|----------------------------------------------------------------| 
B|--------------------------------------------------------------15| 
G|-14-13-12-10------------------------------12----12h14p12-14b16--| 
D|-------------12-10---------------12h14p12----14-----------------| 
A|-------------------12-11-10-------------------------------------| 
E|----------------------------13-10-------------------------------| 

E|-----------------------------------------------------15---------| 
B|-----------------17----------------------------17b19---19r17-15-| 
G|-16r14-12--16b18----18r16-14----14-14----14-14------------------| 
D|-----------------------------16-------16------------------------| 
A|----------------------------------------------------------------| 
E|----------------------------------------------------------------| 

E|------------------------------------------------------| 
B|-------15---------17b19-17-17b19-17-17b19r17-15h17p15-| 
G|-16b18---18r16-14-------------------------------------| 
D|------------------------------------------------------| 
A|------------------------------------------------------| 
E|------------------------------------------------------| 

Especial: G  A5  E|-------|  D 
                     B|-------| 
                     G|-5-----|
                     D|----7--|
                     A|-------|
                     E|-------|


Final:
 
E|------------11-11\-0-0\--0-0-0\----------------11-11\-----0-0\-| 
B|------7-7---11-11\-5-5\--3-3-3\------7-7-X-X-X-11-11\-X-X-5-5\-| 
G|------7-7----------6-6\--4-5-4\------7-7-X-X-X--------X-X-6-6\-| 
D|------7-7-7--------7-7\--5-5-5\------7-7-X-X-X--------X-X-7-7\-| 
A|-7h9-----------------------------7h9---------------------------| 
E|---------------------------------------------------------------| 

E|-------0-0-0-0-0-0-0-| 
B|-X-X-X-3-3-3-3-3-3-3-| 
G|-X-X-X-4-4-4-4-4-4-4-| 
D|-X-X-X-5-5-5-5-5-5-5-| 
A|---------------------| 
E|---------------------| 
  

cifra enviadacorrigido por:Teusalves
enviado porenviada por:europeu
top 5 | spin doctors
top rock'n roll
Outras músicas do artista letras do(a) Spin Doctors
Top cifras »Top artistas »
Petaxxon Comunicação Online
Cifras.com.br - Melhor e mais completo site de cifras e tablaturas do Brasil
Mais de 1 milhão de acordes de músicas cadastradas desde 2003
As informações contidas no nosso site são colaborações de seus usuários e podem conter erros, sendo assim, não nos responsabilizamos sobre nenhuma destas.
close
menos
mais
close
Cor dos acordes:

Cor da letra:

 

save
close
close
 
redimensionar