Cifras e Tablaturas
Spitalfield

Spitalfield

Building A Better City By Design

Cifras Cancelar Versão de Impressão Print

Spitalfield - Building A Better City By Design

Tom:

  • 0:00 / 0:00
  			

Intro 

e|---------------------------------------------------------------------------| 
B|---------------------------------------------------------------------------| 
G|--77777777-77777777-7777-7777-7777-7777------------------------------------| 
D|--77777777-77777777-7777-7777-7777-7777------------------------------------| 
A|--xxxxxxxx-xxxxxxxx-xxxx-xxxx-xxxx-xxxx------------------------------------| 
D|--55555555-77777777-5555-7777-4444-7777------------------------------------| 

e|---------------------------------------------------------------------------| 
B|---------------------------------------------------------------------------| 
G|---------------------------------------------------------------------------| 
D|--55-555-55-7h9-44---------------------------------------------------------| 
A|--55-555-55-7h9-44---------------------------------------------------------| 
D|--55-555-55-7h9-44---------------------------------------------------------| 

Verse 

*Comes in half way 
e|---------------------------------------------------------------------------| 
B|---------------------------------------------------------------------------| 
G|--77777777--9h11--9--------------------------------------------------------| 
D|--77777777------12-11-12--9------------------------------------------------| 
A|--55555555--------------12--9----------------------------------------------| 
D|--55555555-----------------------------------------------------------------| 

Pre Chorus 

e|---------------------------------------------------------------------------| 
B|--7~---0~---0~---7~---0~---0~----------------------------------------------| 
G|--7~---7~---9~---7~---7~---9~---7777-7777-6666-666~------------------------| 
D|--5~---0~---7~---5~---0~---7~---xxxx-xxxx-xxxx-xxx~------------------------| 
A|--5~---9~---7~---5~---9~---7~---5555-5555-5555-555~------------------------| 
D|--5~---9~---7~---5~---9~---7~----------------------------------------------| 
"not here..." 

Chorus 

e|---------------------------------------------------------------------------| 
B|---------------------------------------------------------------------------| 
G|---------------------------------------------------------------------------| 
D|--55-555-55-7h9-44---------------------------------------------------------| 
A|--55-555-55-7h9-44---------------------------------------------------------| 
D|--55-555-55-7h9-44---------------------------------------------------------| 

Verse 
Pre Chorus 
Chorus 

Breakdown 

e|---------------------------------------------------------------------------| 
B|------------3*-------------------------------------------------------------| 
G|------------------------3*-------------------------------------------------| 
D|--5555-5555----5555-5555----5555-5555-3*-5555-5555-5*----------------------| 
A|--5555-5555----5555-5555----5555-5555----5555-5555-------------------------| 
D|--5555-5555----5555-5555----5555-5555----5555-5555-------------------------| 

e|---------------------------------------------------------------------------| 
B|------------3*-------------------------------------------------------------| 
G|------------------------3*-------------------------------------------------| 
D|--5555-5555----5555-5555----5555-5555-3*-5555-5555-0~----------------------| 
A|--5555-5555----5555-5555----5555-5555----5555-5555-0~----------------------| 
D|--5555-5555----5555-5555----5555-5555----5555-5555-0~----------------------| 
                                                     PALM MUTE!!! 
    	

enviado porenviado por: bombaXXX
cifra enviadaCorrigida por: sem correções
logo top cifrasComente
ico música do artistaMúsicas deste artista
ico curtiuCurtiu?
ico destaqueDestaque
Petaxxon Comunicação Online

Cifras.com.br - Melhor e mais completo site de cifras e tablaturas do Brasil Mais de 1 milhão de acordes de músicas cadastradas desde 2003
As informações contidas no nosso site são colaborações de seus usuários e podem conter erros, sendo assim, não nos responsabilizamos sobre nenhuma destas.

close
menos
mais
close
Cor dos acordes:

Cor da letra:

close
Alinhar acordes a direita Alinhar acordes a esquerda Alinhar acordes em baixo Alinhar acordes no topo
close
  Mostrar todos os acordes Esconder acordes muito fáceis Esconder acordes fáceis Esconder acordes intermediários
redimensionar
glossário