Cifras e Tablaturas
Split Feed

Split Feed

Leave It To You

Cifras Cancelar Versão de Impressão
cifras

Split Feed - Leave It To You

fixar na tela  
Exibindo: vídeo-aula ver clipes redimensionar
  
Intro 

JOE 
D#|---------------------------------------------| 
A#|14-14-14-14-14-14-14-14-14-14-14-14-14-14-14-| 
F#|14-14-14-14-14-14-14-14-14-14-14-14-14-14-14-| 
C#|12-12-12-12-12-12-12-12-12-12-12-12-12-12-12-|(x3) 
G#|14-14-14-14-14-14-14-14-14-14-14-14-14-14-14-| 
C#|---------------------------------------------| 

D#|------------------------------| 
A#|14-14-14-14-14-14-14-14-------| 
F#|14-14-14-14-14-14-14-14-------| 
C#|12-12-12-12-12-12-12-12-------| 
G#|14-14-14-14-14-14-14-14-------| 
C#|------------------------------| 

JOE 
D#|-------------------------------------0---0--0---0--0--0---0--0--0---0--0--0-----------| 
A#|7----7-7---7-7-7-10--10-10--10-10-10-10--10-10--10-10-10--10-10-10--10-10-10----------| 
F#|7----7-7---7-7-7-9---9--9---9--9--9--11--11-11--11-11-11--11-11-11--11-11-11----------| 
C#|7----7-7---7-7-7-12--12-12--12-12-12-12--12-12--12-12-12--12-12-12--12-12-12----------| 
G#|5----5-5---5-5-5-9---9--9---9--9--9--0---0--0---0--0--0---0--0--0---0--0--0-----------| 
C#|5----5-5---5-5-5-9---9--9---9--9--9--0---0--0---0--0--0---0--0--0---0--0--0-----------| 

D#|-------------------------------------0---0--0---0--0--0---0--0--0---0--0--0-----------| 
A#|7----7-7---7-7-7-10--10-10--10-10-10-10--10-10--10-10-10--10-10-10--10-10-10----------| 
F#|7----7-7---7-7-7-9---9--9---9--9--9--11--11-11--11-11-11--11-11-11--11-11-11----------| 
C#|7----7-7---7-7-7-12--12-12--12-12-12-12--12-12--12-12-12--12-12-12--12-12-12----------| 
G#|5----5-5---5-5-5-9---9--9---9--9--9--0---0--0---0--0--0---0--0--0---0--0--0-----------| 
C#|5----5-5---5-5-5-9---9--9---9--9--9--0---0--0---0--0--0---0--0--0---0--0--0-----------| 

D#|--------------------------------------------0---0--0---0--0--0---0--0--0---0--0--0----| 
A#|12---12-12---12-12-12---12-12-12---12-12-12-10--10-10--10-10-10--10-10-10--10-10-10---| 
F#|12---12-12---12-12-12---12-12-12---12-12-12-11--11-11--11-11-11--11-11-11--11-11-11---| 
C#|12---12-12---12-12-12---12-12-12---12-12-12-12--12-12--12-12-12--12-12-12--12-12-12---| 
G#|10---10-10---10-10-10---10-10-10---10-10-10-0---0--0---0--0--0---0--0--0---0--0--0----| 
C#|10---10-10---10-10-10---10-10-10---10-10-10-0---0--0---0--0--0---0--0--0---0--0--0----| 

D#|-------------------------------------0---0--0---0--0--0---0--0--0---0--0--0-----------| 
A#|7----7-7---7-7-7-10--10-10--10-10-10-10--10-10--10-10-10--10-10-10--10-10-10----------| 
F#|7----7-7---7-7-7-9---9--9---9--9--9--11--11-11--11-11-11--11-11-11--11-11-11----------| 
C#|7----7-7---7-7-7-12--12-12--12-12-12-12--12-12--12-12-12--12-12-12--12-12-12----------| 
G#|5----5-5---5-5-5-9---9--9---9--9--9--0---0--0---0--0--0---0--0--0---0--0--0-----------| 
C#|5----5-5---5-5-5-9---9--9---9--9--9--0---0--0---0--0--0---0--0--0---0--0--0-----------| 

WILL 
D#|---------------------------------------------------------------------------| 
A#|------------------10--------------------10-7p0----10-7p0----10-7-----------| 
F#|9----7-9/11\9-7--------7-9/11\9-7-8-7---------6h7-------6h7----------------| 
C#|-------------------------------------------------7---------7---------------| 
G#|---------------------------------------------------------------------------| 
C#|---------------------------------------------------------------------------| 

D#|---------------------------------------------------------------------------| 
A#|------------------10--------------------10-7p0----10-7p0----10-7-----------| 
F#|9----7-9/11\9-7--------7-9/11\9-7-8-7---------6h7-------6h7----------------| 
C#|-------------------------------------------------7---------7---------------| 
G#|---------------------------------------------------------------------------| 
C#|---------------------------------------------------------------------------| 

D#|--------10---------------10------------------------------------------------| 
A#|8---7-8----8-7---8---7-8----8-7-------10-7p0----10-7p0----10-7-------------| 
F#|--------------------------------6-7---------6h7-------6h7------------------| 
C#|-----------------------------------------------7---------7-----------------| 
G#|---------------------------------------------------------------------------| 
C#|---------------------------------------------------------------------------| 

D#|---------------------------------------------------------------------------| 
A#|------------------10--------------------10-7p0----10-7p0----10-7-----------| 
F#|9----7-9/11\9-7--------7-9/11\9-7-8-7---------6h7-------6h7----------------| 
C#|-------------------------------------------------7---------7---------------| 
G#|---------------------------------------------------------------------------| 
C#|---------------------------------------------------------------------------| 

Verse 
JOE 
D#|0----------------0---------------0----------------0------------------------| 
A#|12---------------7---------------12---------------7------------------------| 
F#|11---------------6---------------11---------------6------------------------| 
C#|12---------------7---------------12---------------7------------------------| 
G#|10---------------5---------------10---------------5------------------------| 
C#|---------------------------------------------------------------------------| 

D#|0----------------0---------------0----------------0-------0-0-0-0-0-0-0----| 
A#|12---------------7---------------12---------------7-------7-7-7-7-7-7-7----| 
F#|11---------------6---------------11---------------6-------6-6-6-6-6-6-6----| 
C#|12---------------7---------------12---------------7-------7-7-7-7-7-7-7----| 
G#|10---------------5---------------10---------------5-------5-5-5-5-5-5-5----| 
C#|---------------------------------------------------------------------------| 

WILL 
D#|---------------------------------------------------------------------------| 
A#|--------------------------------------------------7~~~~--------------------| 
F#|--------------------------------------------------7~~~~--------------------| 
C#|--------------------------------------------------7~~~~-(HARMONICS)--------| 
G#|--------------------------------------------------7~~~~--------------------| 
C#|---------------------------------------------------------------------------| 

D#|---------------------------------------------------------------------------| 
A#|---------------------------------------------------------------------------| 
F#|---------------------------------------------------------------------------| 
C#|---------------------------------------------------------------------------| 
G#|5-5-5-5-5-5-5-5-5-5-5-5-5-5-5-5-5-5-5-5-5-5-5-5-5-5-5-5-5-5-5-5------------| (Palm muted) 
C#|---------------------------------------------------------------------------| 

Pre-Chorus 
BOTH 
D#|---------------------------------------------------------------------------| 
A#|------------------------------------------------------0--------------------| 
F#|------0---------------0---------------0------------------------------------| 
C#|--4-------4---4---4-------4---4---4-------4---4---4-------4---4------------| 
G#|----------------2---2-------2----------------------------------------------| 
C#|5---5-------5-------------------2---2-------2---2---2-------2--------------| 

D#|---------------------------------------------------------------------------| 
A#|---------------------------------------------------------------------------| 
F#|------0---------------0---------------0-------0-------0--------------------| 
C#|--4-------4---4---4-------4---4---4-------4-------4-------4---4------------| 
G#|----------------2---2-------2---5---5---5---5---5---5---5---5--------------| 
C#|5---5-------5--------------------------------------------------------------| 

Chorus 
BOTH 
D#|------------------------------------0---0-0-0-0---0-0---0-0-0-0------------| 
A#|------------------------------------2---2-2-2-2---2-2---2-2-2-2------------| 
F#|------------------------------------2---2-2-2-2---2-2---2-2-2-2------------| 
C#|7---7---7-9\\\4---4-4---4-4-4-4-0---0---0-0-0-0---0-0---0-0-0-0------------| 
G#|5---5---5-7\\\2---2-2---2-2-2-4-0---0---0-0-0-0---0-0---0-0-0-0------------| X2 
C#|5---5---5-7\\\2---2-2---2-2-2-4-0---0---0-0-0-0---0-0---0-0-0-0------------| 

Intro Again 
JOE 
D#|-------------------------------------0---0--0---0--0--0---0--0--0---0--0--0-----------| 
A#|7----7-7---7-7-7-10--10-10--10-10-10-10--10-10--10-10-10--10-10-10--10-10-10----------| 
F#|7----7-7---7-7-7-9---9--9---9--9--9--11--11-11--11-11-11--11-11-11--11-11-11----------| 
C#|7----7-7---7-7-7-12--12-12--12-12-12-12--12-12--12-12-12--12-12-12--12-12-12----------| 
G#|5----5-5---5-5-5-9---9--9---9--9--9--0---0--0---0--0--0---0--0--0---0--0--0-----------| 
C#|5----5-5---5-5-5-9---9--9---9--9--9--0---0--0---0--0--0---0--0--0---0--0--0-----------| 

D#|--------------------------------------------0---0---0---0---0---0---0---0-0-0---------| 
A#|12---12-12---12-12-12---12-12-12---12-12-12-10--10--10--10--10--10--10--101010--------| 
F#|12---12-12---12-12-12---12-12-12---12-12-12-11--11--11--11--11--11--11--111111--------| 
C#|12---12-12---12-12-12---12-12-12---12-12-12-12--12--12--12--12--12--12--121212--------| 
G#|10---10-10---10-10-10---10-10-10---10-10-10-0---0---0---0---0---0---0---0-0-0---------| 
C#|10---10-10---10-10-10---10-10-10---10-10-10-0---0---0---0---0---0---0---0-0-0---------| 

WILL 
D#|---------------------------------------------------------------------------| 
A#|------------------10--------------------10-7p0----10-7p0----10-7-----------| 
F#|9----7-9/11\9-7--------7-9/11\9-7-8-7---------6h7-------6h7----------------| 
C#|-------------------------------------------------7---------7---------------| 
G#|---------------------------------------------------------------------------| 
C#|---------------------------------------------------------------------------| 

D#|--------10---------------10------------------------------------------------| 
A#|8---7-8----8-7---8---7-8----8-7--------------------------------------------| 
F#|--------------------------------6-7---7---9---9---11---11---11---11-11-11--| 
C#|---------------------------------------------------------------------------| 
G#|---------------------------------------------------------------------------| 
C#|---------------------------------------------------------------------------| 

verse 2 
JOE(P=palm mute) 
D#|--------------------------------------------------------------------------| 
A#|--------------------------------------------------------------------------| 
F#|--------------------------------------------------------------------------| 
C#|4-4-4-4-4-4-4-4-4-4-4-4-4-4-4-4-1111111112-12-12-12-1212122---2---4-------| 
C#|5-5-5-5-5-5-5-5-5-5-5-5-5-5-5-5-9-9-9-9-10-10-10-10-9-9-9-2---2---5-------| 
C#|5-5-5-5-5-5-5-5-5-5-5-5-5-5-5-5-0-0-0-0-10-10-10-10-9-9-9-2---2---5-------| 
   P P   P P P   P P P   P P P   P P P   P P  P     P  P P    

D#|--------------------------------------------------------------------------| 
A#|--------------------------------------------------------------------------| 
F#|--------------------------------------------------------------------------| 
C#|4-4-4-4-4-4-4-4-4-4-4-4-4-4-4-4-1111111112-12-12-12-1212122-2-2-2---------| 
C#|5-5-5-5-5-5-5-5-5-5-5-5-5-5-5-5-9-9-9-9-10-10-10-10-9-9-9-2-2-2-2---------| 
C#|5-5-5-5-5-5-5-5-5-5-5-5-5-5-5-5-0-0-0-0-10-10-10-10-9-9-9-2-2-2-2---------| 
   P P   P P P   P P P   P P P   P P P   P P  P     P  P P    

WILL 
D#|---------------------------------------------------------------------------| 
A#|---------------------------------------------------------------------------| 
F#|--------------------------------111111119-9-9-9-7-7-7-6---6---7------------| 
C#|4-4-4-4-4-4-4-4-4-4-4-4-4-4-4-4--------------------------------------------| 
G#|5-5-5-5-5-5-5-5-5-5-5-5-5-5-5-5-9-9-9-9-7-7-7-7-5-5-5-4---4---5------------| 
C#|5-5-5-5-5-5-5-5-5-5-5-5-5-5-5-5--------------------------------------------| 
   P P   P P P   P P P   P P P   P P P   P P P   P P P    

D#|---------------------------------------------------------------------------| 
A#|---------------------------------------------------------------------------| 
F#|--------------------------------6-6-6-6-7-7-7-7-9-9-9-9-11111111-----------| 
C#|4-4-4-4-4-4-4-4-4-4-4-4-4-4-4-4--------------------------------------------| 
G#|5-5-5-5-5-5-5-5-5-5-5-5-5-5-5-5-4-4-4-4-5-5-5-5-7-7-7-7-9-9-9-9------------| 
C#|5-5-5-5-5-5-5-5-5-5-5-5-5-5-5-5--------------------------------------------| 
   P P   P P P   P P P   P P P   P  

Pre-Chorus 2 
JOE 
D#|---------------------------------------------------------------------------| 
A#|----------------2-2-2-2-2-2-2-2-3-3-3-3-3-3-3-3-3-3-3-3-3-3-3-3------------| 
F#|----------------2-2-2-2-2-2-2-2-2-2-2-2-2-2-2-2-2-2-2-2-2-2-2-2------------| 
C#|4-4-4-4-4-4-4-4-4-4-4-4-4-4-4-4-5-5-5-5-5-5-5-5-5-5-5-5-5-5-5-5------------| 
G#|5-5-5-5-5-5-5-5-2-2-2-2-2-2-2-2-2-2-2-2-2-2-2-2-2-2-2-2-2-2-2-2------------| 
C#|5-5-5-5-5-5-5-5-----------------2-2-2-2-2-2-2-2-2-2-2-2-2-2-2-2------------| 

D#|---------------------------------------------------------------------------| 
A#|----------------2-2-2-2-2-2-2-2-7-7-7-7-7-7-7-7-7-7-7-7-7-7-7-7------------| 
F#|----------------2-2-2-2-2-2-2-2-6-6-6-6-6-6-6-6-6-6-6-6-6-6-6-6------------| 
C#|4-4-4-4-4-4-4-4-4-4-4-4-4-4-4-4-4-4-4-4-4-4-4-4-4-4-4-4-4-4-4-4------------| 
G#|5-5-5-5-5-5-5-5-2-2-2-2-2-2-2-2-5-5-5-5-5-5-5-5-5-5-5-5-5-5-5-5------------| 
C#|5-5-5-5-5-5-5-5------------------------------------------------------------| 

WILL 
D#|---------------------------------------------------------------------------| 
A#|----------------2---------------3---------------3--------------------------| 
F#|----------------2---------------2---------------2--------------------------| 
C#|4---------------4---------------5---------------5--------------------------| 
G#|5---------------2---------------2---------------2--------------------------| 
C#|5-------------------------------2---------------2--------------------------| 

D#|---------------------------------------------------------------------------| 
A#|----------------2----------------------------------------------------------| 
F#|----------------2---------------6-6-6-6-7-7-7-7-9-9-9-9-11111111-----------| 
C#|4---------------4----------------------------------------------------------| 
G#|5---------------2---------------4-4-4-4-5-5-5-5-7-7-7-7-9-9-9-9------------| 
C#|5--------------------------------------------------------------------------| 

Chorus 
BOTH 
D#|------------------------------------0---0-0-0-0---0-0---0-0-0-0------------| 
A#|------------------------------------2---2-2-2-2---2-2---2-2-2-2------------| 
F#|------------------------------------2---2-2-2-2---2-2---2-2-2-2------------| 
C#|7---7---7-9\\\4---4-4---4-4-4-4-0---0---0-0-0-0---0-0---0-0-0-0------------| 
G#|5---5---5-7\\\2---2-2---2-2-2-4-0---0---0-0-0-0---0-0---0-0-0-0------------| X2 
C#|5---5---5-7\\\2---2-2---2-2-2-4-0---0---0-0-0-0---0-0---0-0-0-0------------| 

BOTH 
D#|---------------------------------| 
A#|---------------------------------| 
F#|---------------------------------| 
C#|7---7---7-9\\\4---4-4---4-4-4-4--| 
G#|5---5---5-7\\\2---2-2---2-2-2-4--| 
C#|5---5---5-7\\\2---2-2---2-2-2-4--| 

Pre-Bridge 
JOE 
D#|3---3-3-3-3-3-3-3-3-3-3-3-3-3-3-0---0-0-0-0-0-0-0-0-0-0-0-0-0-0-| 
A#|3---3-3-3-3-3-3-3-3-3-3-3-3-3-3-5---5-5-5-5-5-5-5-5-5-5-5-5-5-5-| 
F#|4---4-4-4-4-4-4-4-4-4-4-4-4-4-4-4---4-4-4-4-4-4-4-4-4-4-4-4-4-4-| 
C#|5---5-5-5-5-5-5-5-5-5-5-5-5-5-5-5---5-5-5-5-5-5-5-5-5-5-5-5-5-5-| 
G#|3---3-3-3-3-3-3-3-3-3-3-3-3-3-3-0---0-0-0-0-0-0-0-0-0-0-0-0-0-0-| 
C#|----------------------------------------------------------------| 
       P P P P P P P P P P P P P P     P P P P P P P P P P P P P P  

D#|3---3-3-3-3-3-3-3-3-3-3-3-3-3-3-0---0-0-0-0-0-0-0-0-0-0-0-0-0-0-| 
A#|3---3-3-3-3-3-3-3-3-3-3-3-3-3-3-5---5-5-5-5-5-5-5-5-5-5-5-5-5-5-| 
F#|4---4-4-4-4-4-4-4-4-4-4-4-4-4-4-4---4-4-4-4-4-4-4-4-4-4-4-4-4-4-| 
C#|5---5-5-5-5-5-5-5-5-5-5-5-5-5-5-5---5-5-5-5-5-5-5-5-5-5-5-5-5-5-| 
G#|3---3-3-3-3-3-3-3-3-3-3-3-3-3-3-0---0-0-0-0-0-0-0-0-0-0-0-0-0-0-| 
C#|----------------------------------------------------------------| 
       P P P P P P P P P P P P P P     P P P P P P P P P P P P P P  

WILL 
D#|----------------------------------------------------------------| 
A#|----------------------------------------------------------------| 
F#|9---9-9-9-9-9-9-9-9-9-9-9-9-9-9-11--1111111111111111111111111111| 
C#|----------------------------------------------------------------| 
G#|7---7-7-7-7-7-7-7-7-7-7-7-7-7-7-9---9-9-9-9-9-9-9-9-9-9-9-9-9-9-| 
C#|----------------------------------------------------------------| 
       P P P P P P P P P P P P P P     P P P P P P P P P P P P P P  

D#|----------------------------------------------------------------| 
A#|----------------------------------------------------------------| 
F#|9---9-9-9-9-9-9-9-9-9-9-9-9-9-9-11--1111111111111111111111111111| 
C#|----------------------------------------------------------------| 
G#|7---7-7-7-7-7-7-7-7-7-7-7-7-7-7-9---9-9-9-9-9-9-9-9-9-9-9-9-9-9-| 
C#|----------------------------------------------------------------| 
       P P P P P P P P P P P P P P     P P P P P P P P P P P P P P  

Bridge 
JOE 
D#|--------------------------------------------------------------------| 
D#|--------------------------------------------------------------------| 
F#|------------------9/11-9----9h11------------------------------------| 
C#|7-7-7-7-7-7-7-7----------12------12-9-9\\\2-2///9-9\\\2-2---7-7-7-7-| 
G#|5-5-5-5-5-5-5-5---------------------9-9\\\2-2///9-9\\\2-2---4-4-4-4-| 
C#|5-5-5-5-5-5-5-5---------------------9-9\\\2-2///9-9\\\2-2---4-4-4-4-| 

D#|--------------------------------------------------------------------| 
D#|------------------9/11-9----9h11------------------------------------| 
F#|-------------------------12------12---------------------------------| 
C#|7-7-7-7-7-7-7-7---------------------9-9\\\2-2///9-9\\\2-2---7-7-7-7-| 
G#|5-5-5-5-5-5-5-5---------------------9-9\\\2-2///9-9\\\2-2---4-4-4-4-| 
C#|5-5-5-5-5-5-5-5---------------------9-9\\\2-2///9-9\\\2-2---4-4-4-4-| 

WILL 
D#|--------------------------------------------------------------------| 
A#|------------------10-7p0--------------------------------------------| 
F#|-------------------------6-7----------------------------------------| 
C#|7-7-7-7-7-7-7-7--------------7------9-9\\\2-2///9-9\\\2-2---7-7-7-7-| 
G#|5-5-5-5-5-5-5-5---------------------9-9\\\2-2///9-9\\\2-2---4-4-4-4-| 
C#|5-5-5-5-5-5-5-5---------------------9-9\\\2-2///9-9\\\2-2---4-4-4-4-| 

D#|--------------------------------------------------------------------| 
A#|------------------10-7p0-7-10-7-------------------------------------| 
F#|--------------------------------------------------------------------| 
C#|7-7-7-7-7-7-7-7---------------------9-9\\\2-2///9-9\\\2-2---7-7-7-7-| 
G#|5-5-5-5-5-5-5-5---------------------9-9\\\2-2///9-9\\\2-2---4-4-4-4-| 
C#|5-5-5-5-5-5-5-5---------------------9-9\\\2-2///9-9\\\2-2---4-4-4-4-| 

JOE 
D#|0---0---0---0---0---0---0---0---0-0-0-0-0-0-0-0-0-0-0-0-0-0-0-0-----| 
A#|3---3---3---3---2---2---2---2---3-3-3-3-3-3-3-3-2-2-2-2-2-2-2-2-----| 
F#|2---2---2---2---2---2---2---2---2-2-2-2-2-2-2-2-2-2-2-2-2-2-2-2-----| 
C#|0---0---0---0---0---0---0---0---0-0-0-0-0-0-0-0-0-0-0-0-0-0-0-0-----| 
C#|0---0---0---0---0---0---0---0---0-0-0-0-0-0-0-0-0-0-0-0-0-0-0-0-----| 
C#|0---0---0---0---0---0---0---0---0-0-0-0-0-0-0-0-0-0-0-0-0-0-0-0-----| 

WILL 
D#|-----------------------------------------------------------------------| 
A#|-----------------------------------------------------------------------| 
F#|7---7---7---7---6---6---6---6---7-7-7-7-7-7-7-7-9-9-9-9-9-9-9-9-7------| 
C#|-----------------------------------------------------------------------| 
G#|5---5---5---5---5---5---5---5---5-5-5-5-5-5-5-5-7-7-7-7-7-7-7-7-5------| 
C#|-----------------------------------------------------------------------| 

Outro 
JOE 
D#|----------------------------------------------------------------| 
A#|----------------------------------------------------------------| 
F#|----------------------------------------------------------------| 
C#|4-4-4-4-4-4-4-4-4-4-4-4-4-4-4-4-5-5-5-5-5-5-5-5-5-5-5-5-5-5-5-5-| 
G#|5-5-5-5-5-5-5-5-5-5-5-5-5-5-5-5-7-7-7-7-7-7-7-7-7-7-7-7-7-7-7-7-| 
C#|----------------------------------------------------------------| 

D#|----------------------------------------------------------------| 
A#|----------------------------------------------------------------| 
F#|----------------------------------------------------------------| 
C#|5-5-5-5-5-5-5-5-5-5-5-5-5-5-5-5-4-4-4-4-4-4-4-4-4-4-4-4-4-4-4-4-| 
G#|2-2-2-2-2-2-2-2-3-3-3-3-3-3-3-3-5-5-5-5-5-5-5-5-5-5-5-5-5-5-5-5-| 
C#|--------------------------------5-5-5-5-5-5-5-5-5-5-5-5-5-5-5-5-| 

D#|----------------------------------------------------------------| 
A#|----------------------------------------------------------------| 
F#|----------------------------------------------------------------| 
C#|4-4-4-4-4-4-4-4-4-4-4-4-4-4-4-4-5-5-5-5-5-5-5-5-5-5-5-5-5-5-5-5-| 
G#|5-5-5-5-5-5-5-5-5-5-5-5-5-5-5-5-7-7-7-7-7-7-7-7-7-7-7-7-7-7-7-7-| 
C#|----------------------------------------------------------------| 

D#|--------------------------------------------------------------------------------| 
A#|--------------------------------------------------------------------------------| 
F#|--------------------------------------------------------------------------------| 
C#|5-5-5-5-5-5-5-5-5-5-5-5-5-5-5-5-4-4-4-4-4-4-4-4-4-4-4-4-4-4-4-4-4---------------| 
G#|2-2-2-2-2-2-2-2-3-3-3-3-3-3-3-3-5-5-5-5-5-5-5-5-5-5-5-5-5-5-5-5-5---------------| 
C#|--------------------------------5-5-5-5-5-5-5-5-5-5-5-5-5-5-5-5-5---------------| 

Break 
JOE 
D#|0-0-0-0-0-0-0-0-0-0-0-0-0-0-0-0-2-2-2-2-2-2-2-2-2-2-2-2-2-2-2-2-| 
A#|3-3-3-3-3-3-3-3-3-3-3-3-3-3-3-3-3-3-3-3-3-3-3-3-3-3-3-3-3-3-3-3-| 
F#|2-2-2-2-2-2-2-2-2-2-2-2-2-2-2-2-2-2-2-2-2-2-2-2-2-2-2-2-2-2-2-2-| 
C#|0-0-0-0-0-0-0-0-0-0-0-0-0-0-0-0-5-5-5-5-5-5-5-5-5-5-5-5-5-5-5-5-| 
G#|0-0-0-0-0-0-0-0-0-0-0-0-0-0-0-0-2-2-2-2-2-2-2-2-2-2-2-2-2-2-2-2-| 
C#|0-0-0-0-0-0-0-0-0-0-0-0-0-0-0-0-2-2-2-2-2-2-2-2-2-2-2-2-2-2-2-2-| 

D#|9-9-9-9-9-9-9-9-9--------------------------------------------------------| 
A#|10101010101010101012-12-12-12-12-12-12-7-7-7-7-7-7-7-7-7-7-7-7-7-7-7-7---| 
F#|9-9-9-9-9-9-9-9-9-12-12-12-12-12-12-12-7-7-7-7-7-7-7-7-7-7-7-7-7-7-7-7---| 
C#|12121212121212121212-12-12-12-12-12-12-7-7-7-7-7-7-7-7-7-7-7-7-7-7-7-7---| 
G#|9-9-9-9-9-9-9-9-9-10-10-10-10-10-10-10-5-5-5-5-5-5-5-5-5-5-5-5-5-5-5-5---| 
C#|9-9-9-9-9-9-9-9-9-10-10-10-10-10-10-10-5-5-5-5-5-5-5-5-5-5-5-5-5-5-5-5---| 

D#|0-0-0-0-0-0-0-0-0-0-0-0-0-0-0-0-2-2-2-2-2-2-2-2-2-2-2-2-2-2-2-2-| 
A#|3-3-3-3-3-3-3-3-3-3-3-3-3-3-3-3-3-3-3-3-3-3-3-3-3-3-3-3-3-3-3-3-| 
F#|2-2-2-2-2-2-2-2-2-2-2-2-2-2-2-2-2-2-2-2-2-2-2-2-2-2-2-2-2-2-2-2-| 
C#|0-0-0-0-0-0-0-0-0-0-0-0-0-0-0-0-5-5-5-5-5-5-5-5-5-5-5-5-5-5-5-5-| 
G#|0-0-0-0-0-0-0-0-0-0-0-0-0-0-0-0-2-2-2-2-2-2-2-2-2-2-2-2-2-2-2-2-| 
C#|0-0-0-0-0-0-0-0-0-0-0-0-0-0-0-0-2-2-2-2-2-2-2-2-2-2-2-2-2-2-2-2-| 

D#|9-9-9-9-9-9-9-9-9--------------------------------------------------------------------------------------| 
A#|10101010101010101012-12-12-12-12-12-12-8---8---8---8---7---7---7---7---8-8-8-8-8-8-8-8-7-7-7-7-7-7-7-7-| 
F#|9-9-9-9-9-9-9-9-9-12-12-12-12-12-12-12-7---7---7---7---7---7---7---7---7-7-7-7-7-7-7-7-7-7-7-7-7-7-7-7-| 
C#|12121212121212121212-12-12-12-12-12-12-7---7---7---7---7---7---7---7---7-7-7-7-7-7-7-7-7-7-7-7-7-7-7-7-| 
G#|9-9-9-9-9-9-9-9-9-10-10-10-10-10-10-10-5---5---5---5---5---5---5---5---5-5-5-5-5-5-5-5-5-5-5-5-5-5-5-5-| 
C#|9-9-9-9-9-9-9-9-9-10-10-10-10-10-10-10-5---5---5---5---5---5---5---5---5-5-5-5-5-5-5-5-5-5-5-5-5-5-5-5-| 

WILL 
D#|--------------------------------------------------------------------------------| 
A#|--------------------------------------------------------------------------------| 
F#|16-16-16-16-16-16-16-16-16-16-16-16-16-16-16-16-9-9-9-9-9-9-9-9-9-9-9-9-9-9-9-9-| 
C#|--------------------------------------------------------------------------------| 
G#|14-14-14-14-14-14-14-14-14-14-14-14-14-14-14-14-7-7-7-7-7-7-7-7-7-7-7-7-7-7-7-7-| 
C#|--------------------------------------------------------------------------------| 

D#|----------------------------------------------------------------------------| 
A#|----------------------------------------------------------------------------| 
F#|7-7-7-7-7-7-7-7-7-9-9-9-9-9-9-9-12-12-12-12-12-12-12-12-12-12-12-12-1112-11-| 
C#|----------------------------------------------------------------------------| 
G#|5-5-5-5-5-5-5-5-5-7-7-7-7-7-7-7-10-10-10-10-10-10-10-10-10-10-10-10-9-10-9--| 
C#|----------------------------------------------------------------------------| 

D#|--------------------------------------------------------------------------------| 
A#|--------------------------------------------------------------------------------| 
F#|16-16-16-16-16-16-16-16-16-16-16-16-16-16-16-16-9-9-9-9-9-9-9-9-9-9-9-9-9-9-9-9-| 
C#|--------------------------------------------------------------------------------| 
G#|14-14-14-14-14-14-14-14-14-14-14-14-14-14-14-14-7-7-7-7-7-7-7-7-7-7-7-7-7-7-7-7-| 
C#|--------------------------------------------------------------------------------| 

D#|---------------------------------------------------------------------------------------------------------| 
A#|---------------------------------------------------------------------------------------------------------| 
F#|7-7-7-7-7-7-7-7-7-9-9-9-9-9-9-9-12---12---12---12---11---11---11---11---12121212121212121111111111111111-| 
C#|---------------------------------------------------------------------------------------------------------| 
G#|5-5-5-5-5-5-5-5-5-7-7-7-7-7-7-7-10---10---10---10---10---10---10---10---10101010101010101010101010101010-| 
C#|---------------------------------------------------------------------------------------------------------| 

JOE 
D#|---------------------------------------------| 
A#|14-14-14-14-14-14-14-14-14-14-14-14-14-14-14-| 
F#|14-14-14-14-14-14-14-14-14-14-14-14-14-14-14-| 
C#|12-12-12-12-12-12-12-12-12-12-12-12-12-12-12-|(x3) 
G#|14-14-14-14-14-14-14-14-14-14-14-14-14-14-14-| 
C#|---------------------------------------------| 

************************************ 

| x   Dead note 
| g   Grace note 
| (n) Ghost note 
| h   Hammer-on 
| p   Pull-off 
| r   Release 
| >   Accented note 
| t   Tapping 
| b   Bend 
| br  Bend release 
| pb  Pre-bend 
| pbr Pre-bend release 
| /   Slide up 
| \   Slide down 
| ~   Vibrato 
| s   Slap 
| P   Pop 
| PM  Palm mute 
| TR  Trill 
| N   Tremolo 

************************************ 
  

top 5 | split feed
top rock'n roll
Outras músicas do artista letras do(a) Split Feed
Top cifras »Top artistas »
Petaxxon Comunicação Online
Cifras.com.br - Melhor e mais completo site de cifras e tablaturas do Brasil
Mais de 1 milhão de acordes de músicas cadastradas desde 2003
As informações contidas no nosso site são colaborações de seus usuários e podem conter erros, sendo assim, não nos responsabilizamos sobre nenhuma destas.
close
menos
mais
close
Cor dos acordes:

Cor da letra:

 

save
close
close
 
redimensionar