Cifras e Tablaturas
Spoken

Spoken

All I Wanted

Cifras Cancelar Versão de Impressão
cifras

Spoken - All I Wanted

fixar na tela  
Exibindo: vídeo-aula ver clipes redimensionar

Tom:

  Intro 
C |---------------------------------|---------------------------------| 
G |---------------------------------|---------------------------------| 
D#|---------------------------------|---------------------------------| 
A#|-5----------5--5-----------5-----|-5----------5--5-----------------| 
F |-5--5-5-5-5-5--5--5--5-5---5-5-3-|-5--5-5-5-5-5--5--5--5-5---8-8-8-| 
A#|-5--5-5-5-5-5--5--5--5-5---5-5-3-|-5--5-5-5-5-5--5--5--5-5---8-8-8-| 

C |---------------------------------|----------------------------------| 
G |---------------------------------|----------------------------------| 
D#|---------------------------------|----------------------------------| 
A#|-1----------1--1-----------1-----|-1----------1--1----------5-------| 
F |-1--1-1-1-1-1--1--1--1-1---1-1-1-|-1--1-1-1-1-1--1--1--3-3--5-5-3-3-| 
A#|-1--1-1-1-1-1--1--1--1-1---1-1-1-|-1--1-1-1-1-1--1--1--3-3--5-5-3-3-| 

verse 1 
C |------------------------|--------------------------| 
G |------------------------|--------------------------| 
D#|------------------------|--------------------------| 
A#|------------------------|--------------------------| 
F |-5----------------------|-5---------------1--------| 
A#|-5--5-5--5-5--5--5-5--5-|-5--5-5--5-5-3h5---x-0h3--| 

C |----------------------|--------------------------| 
G |----------------------|--------------------------| 
D#|----------------------|--------------------------| 
A#|----------------------|--------------------------| 
F |-5--------------------|-5---------------1-----3--| 
A#|-5--5-5--5-5--5--5-5--|-5--5-5--5-5-3h5---x-0-3--| 

C |----------------------|--------------------------| 
G |----------------------|--------------------------| 
D#|----------------------|--------------------------| 
A#|----------------------|--------------------------| 
F |-5--------------------|-5---------------3--------| 
A#|-5--5-5----5--5--5-5--|-5--5-5----5-3h5---x-0h3--| 

C |---------------------|------------------------| 
G |---------------------|------------------------| 
D#|---------------------|------------------------| 
A#|---------------------|------------------------| 
F |-5-------------------|-5---------------3------| 
A#|-5--5-5-----5-5-5-5--|-5--5-5----5-3h5---0-3--| 

Pre-Chorus 
                                      left hand holds the three while 
                                     right hand taps on the eighth fret                     
C |-----------------------------|-----------------------------| 
G |-3--3------------------------|-3--3------------------------| 
D#|-5--5------------------------|-5--5------------------------| 
A#|-x------5--------------------|-x------5-----3L~(8)-(8)-----| 
F |-3----x-3-3-3----------5h8---|-3----x-3-3-3-----------5----| 
A#|------x--------0h3-0-------3-|------x--------------------3-| 

C |-----------------------------|----------------------------| 
G |-3--3------------------------|-3--3-----------------------| 
D#|-5--5------------------------|-5--5-----------------------| 
A#|-x------5--------------------|-x------5-------------------| 
F |-3----x-3-3-3----------5h8---|-3----x-3-3-3----------5----| 
A#|------x--------0h3-0-------3-|------x--------0h3-0------3-| 

C |--------------------------------------| 
G |--------------------------------------| 
D#|--------------------------------------| 
A#|-------------------------3L~(8)-(8)---| 
F |-1-1-1-1-1-1-1-1-0-0-0-0-----------x--| 
A#|-----------------------------------x--| 

Chorus 
C |---------------------------|---------------------------| 
G |---------------------------|---------------------------| 
D#|---------------------------|---------------------------| 
A#|-5-----------5---------5---|-5-----------5---------5---| 
F |-5--5-5--5-5-5-5-5--5--5-5-|-5--5-5--5-5-5-5-5--5--5-5-| 
A#|-5--5-5--5-5-5-5-5--5--5-5-|-5--5-5--5-5-5-5-5--5--5-5-| 

C |---------------------------|---------------------------| 
G |---------------------------|---------------------------| 
D#|---------------------------|---------------------------| 
A#|-5-----------5---------5---|-5-----------5---------5---| 
F |-5--5-5--5-5-5-5-5--5--5-5-|-5--5-5--5-5-5-5-5--5--5-5-| 
A#|-5--5-5--5-5-5-5-5--5--5-5-|-5--5-5--5-5-5-5-5--5--5-5-| 

C |---------------------------|---------------------------| 
G |---------------------------|---------------------------| 
D#|---------------------------|---------------------------| 
A#|-1-----------1---------1---|-1-----------1---------1---| 
F |-1--1-1--1-1-1-1-1--1--1-1-|-1--1-1--1-1-1-1-1--1--1-1-| 
A#|-1--1-1--1-1-1-1-1--1--1-1-|-1--1-1--1-1-1-1-1--1--1-1-| 

C |---------------------------|---------------------------| 
G |---------------------------|---------------------------| 
D#|---------------------------|---------------------------| 
A#|-5-----------5---------5---|-5-----------5---------5---| 
F |-5--5-5--5-5-5-5-5--5--5-5-|-5--5-5--5-5-5-5-5--5--5-5-| 
A#|-5--5-5--5-5-5-5-5--5--5-5-|-5--5-5--5-5-5-5-5--5--5-5-| 

C |---------------------------|---------------------------|-----| 
G |---------------------------|---------------------------|-----| 
D#|---------------------------|---------------------------|-5~--| 
A#|-1-----------1---------1---|-3-----------3---------3---|-3~--| 
F |-1--1-1--1-1-1-1-1--1--1-1-|-3--3-3--3-3-3-3-3--3--3-3-|-3~--| 
A#|-1--1-1--1-1-1-1-1--1--1-1-|-3--3-3--3-3-3-3-3--3--3-3-|-3~--| 

Instrumental 
C |---------------------------------|---------------------------------| 
G |---------------------------------|---------------------------------| 
D#|---------------------------------|---------------------------------| 
A#|-5----------5--5-----------5-----|-5----------5--5-----------------| 
F |-5--5-5-5-5-5--5--5--5-5---5-5-3-|-5--5-5-5-5-5--5--5--5-5---8-8-8-| 
A#|-5--5-5-5-5-5--5--5--5-5---5-5-3-|-5--5-5-5-5-5--5--5--5-5---8-8-8-| 

C |---------------------------------|----------------------------------| 
G |---------------------------------|----------------------------------| 
D#|---------------------------------|----------------------------------| 
A#|-1----------1--1-----------1-----|-1----------1--1----------5-------| 
F |-1--1-1-1-1-1--1--1--1-1---1-1-1-|-1--1-1-1-1-1--1--1--3-3--5-5-3-3-| 
A#|-1--1-1-1-1-1--1--1--1-1---1-1-1-|-1--1-1-1-1-1--1--1--3-3--5-5-3-3-| 

verse 1 
C |------------------------|--------------------------| 
G |------------------------|--------------------------| 
D#|------------------------|--------------------------| 
A#|------------------------|--------------------------| 
F |-5----------------------|-5---------------1--------| 
A#|-5--5-5--5-5--5--5-5--5-|-5--5-5--5-5-3h5---x-0h3--| 

C |----------------------|--------------------------| 
G |----------------------|--------------------------| 
D#|----------------------|--------------------------| 
A#|----------------------|--------------------------| 
F |-5--------------------|-5---------------1-----3--| 
A#|-5--5-5--5-5--5--5-5--|-5--5-5--5-5-3h5---x-0-3--| 

C |----------------------|--------------------------| 
G |----------------------|--------------------------| 
D#|----------------------|--------------------------| 
A#|----------------------|--------------------------| 
F |-5--------------------|-5---------------3--------| 
A#|-5--5-5----5--5--5-5--|-5--5-5----5-3h5---x-0h3--| 

C |---------------------|------------------------| 
G |---------------------|------------------------| 
D#|---------------------|------------------------| 
A#|---------------------|------------------------| 
F |-5-------------------|-5---------------3------| 
A#|-5--5-5--5--5-5-5-5--|-5--5-5----5-3h5---0h3--| 

C |------------------------|------------------------------| 
G |------------------------|------------------------------| 
D#|-0~---------------------|-2~---------------------------| 
A#|-1-------------1--------|-3-------------3--------------| 
F |-1---1--1-1-1--1---1-1--|-3---3-3--3-3--3--------------| 
A#|-1---1--1-1-1--1---1-1--|-3---3-3--3-3--3--3--3-3-3-3--| 

Chorus 
C |---------------------------|---------------------------| 
G |---------------------------|---------------------------| 
D#|---------------------------|---------------------------| 
A#|-5-----------5---------5---|-5-----------5---------5---| 
F |-5--5-5--5-5-5-5-5--5--5-5-|-5--5-5--5-5-5-5-5--5--5-5-| 
A#|-5--5-5--5-5-5-5-5--5--5-5-|-5--5-5--5-5-5-5-5--5--5-5-| 

C |---------------------------|---------------------------| 
G |---------------------------|---------------------------| 
D#|---------------------------|---------------------------| 
A#|-5-----------5---------5---|-5-----------5---------5---| 
F |-5--5-5--5-5-5-5-5--5--5-5-|-5--5-5--5-5-5-5-5--5--5-5-| 
A#|-5--5-5--5-5-5-5-5--5--5-5-|-5--5-5--5-5-5-5-5--5--5-5-| 

C |---------------------------|---------------------------| 
G |---------------------------|---------------------------| 
D#|---------------------------|---------------------------| 
A#|-1-----------1---------1---|-1-----------1---------1---| 
F |-1--1-1--1-1-1-1-1--1--1-1-|-1--1-1--1-1-1-1-1--1--1-1-| 
A#|-1--1-1--1-1-1-1-1--1--1-1-|-1--1-1--1-1-1-1-1--1--1-1-| 

C |---------------------------|---------------------------| 
G |---------------------------|---------------------------| 
D#|---------------------------|---------------------------| 
A#|-5-----------5---------5---|-5-----------5---------5---| 
F |-5--5-5--5-5-5-5-5--5--5-5-|-5--5-5--5-5-5-5-5--5--5-5-| 
A#|-5--5-5--5-5-5-5-5--5--5-5-|-5--5-5--5-5-5-5-5--5--5-5-| 

C |---------------------------|---------------------------| 
G |---------------------------|---------------------------| 
D#|---------------------------|---------------------------| 
A#|-1-----------1---------1---|-3-----------3---------3---| 
F |-1--1-1--1-1-1-1-1--1--1-1-|-3--3-3--3-3-3-3-3--3--3-3-| 
A#|-1--1-1--1-1-1-1-1--1--1-1-|-3--3-3--3-3-3-3-3--3--3-3-| 

C |---------------------------|---------------------------| 
G |---------------------------|---------------------------| 
D#|---------------------------|---------------------------| 
A#|-5-----------5---------5---|-5-----------5---------5---| 
F |-5--5-5--5-5-5-5-5--5--5-5-|-5--5-5--5-5-5-5-5--5--5-5-| 
A#|-5--5-5--5-5-5-5-5--5--5-5-|-5--5-5--5-5-5-5-5--5--5-5-| 

C |---------------------------|---------------------------| 
G |---------------------------|---------------------------| 
D#|---------------------------|---------------------------| 
A#|-1-----------1---------1---|-3-----------3---------3---| 
F |-1--1-1--1-1-1-1-1--1--1-1-|-3--3-3--3-3-3-3-3--3--3-3-| 
A#|-1--1-1--1-1-1-1-1--1--1-1-|-3--3-3--3-3-3-3-3--3--3-3-| 

Bridge 
C |----------------------------------|----------------------------------| 
G |----------------------------------|----------------------------------| 
D#|----------------------------------|----------------------------------| 
A#|-7----------------7---------------|-8----------------8---------------| 
F |-7----------------7---------------|-8----------------8---------------| 
A#|-7-7-7-7-7-7-7-7--7-7-7-7-7-7-7-7-|-8-8-8-8-8-8-8-8--8-8-8-8-8-8-8-8-| 

C |----------------------------------|----------------------------------| 
G |----------------------------------|----------------------------------| 
D#|----------------------------------|----------------------------------| 
A#|-1----------------1---------------|-3----------------3---------------| 
F |-1----------------1---------------|-3----------------3---------------| 
A#|-1-1-1-1-1-1-1-1--1-1-1-1-1-1-1-1-|-3-3-3-3-3-3-3-3--3-3-3-3-3-3-3-3-| 

Chorus 
C |---------------------------|---------------------------| 
G |---------------------------|---------------------------| 
D#|---------------------------|---------------------------| 
A#|-5-----------5---------5---|-5-----------5---------5---| 
F |-5--5-5--5-5-5-5-5--5--5-5-|-5--5-5--5-5-5-5-5--5--5-5-| 
A#|-5--5-5--5-5-5-5-5--5--5-5-|-5--5-5--5-5-5-5-5--5--5-5-| 

C |---------------------------|---------------------------| 
G |---------------------------|---------------------------| 
D#|---------------------------|---------------------------| 
A#|-5-----------5---------5---|-5-----------5---------5---| 
F |-5--5-5--5-5-5-5-5--5--5-5-|-5--5-5--5-5-5-5-5--5--5-5-| 
A#|-5--5-5--5-5-5-5-5--5--5-5-|-5--5-5--5-5-5-5-5--5--5-5-| 

C |---------------------------|---------------------------| 
G |---------------------------|---------------------------| 
D#|---------------------------|---------------------------| 
A#|-1-----------1---------1---|-1-----------1---------1---| 
F |-1--1-1--1-1-1-1-1--1--1-1-|-1--1-1--1-1-1-1-1--1--1-1-| 
A#|-1--1-1--1-1-1-1-1--1--1-1-|-1--1-1--1-1-1-1-1--1--1-1-| 

C |---------------------------|---------------------------| 
G |---------------------------|---------------------------| 
D#|---------------------------|---------------------------| 
A#|-5-----------5---------5---|-5-----------5---------5---| 
F |-5--5-5--5-5-5-5-5--5--5-5-|-5--5-5--5-5-5-5-5--5--5-5-| 
A#|-5--5-5--5-5-5-5-5--5--5-5-|-5--5-5--5-5-5-5-5--5--5-5-| 

C |---------------------------|---------------------------| 
G |---------------------------|---------------------------| 
D#|---------------------------|---------------------------| 
A#|-1-----------1---------1---|-3-----------3---------3---| 
F |-1--1-1--1-1-1-1-1--1--1-1-|-3--3-3--3-3-3-3-3--3--3-3-| 
A#|-1--1-1--1-1-1-1-1--1--1-1-|-3--3-3--3-3-3-3-3--3--3-3-| 

C |---------------------------|---------------------------| 
G |---------------------------|---------------------------| 
D#|---------------------------|---------------------------| 
A#|-5-----------5---------5---|-5-----------5---------5---| 
F |-5--5-5--5-5-5-5-5--5--5-5-|-5--5-5--5-5-5-5-5--5--5-5-| 
A#|-5--5-5--5-5-5-5-5--5--5-5-|-5--5-5--5-5-5-5-5--5--5-5-| 

C |-----|-----| 
G |-----|-6~--| 
D#|-3~--|-5~--| 
A#|-1~--|-3~--| 
F |-1~--|-3~--| 
A#|-1~--|-3~--| 

Outro 
C |---------------------------------|---------------------------------| 
G |---------------------------------|---------------------------------| 
D#|---------------------------------|---------------------------------| 
A#|-5----------5--5-----------5-----|-5----------5--5-----------------| 
F |-5--5-5-5-5-5--5--5--5-5---5-5-3-|-5--5-5-5-5-5--5--5--5-5---8-8-8-| 
A#|-5--5-5-5-5-5--5--5--5-5---5-5-3-|-5--5-5-5-5-5--5--5--5-5---8-8-8-| 

C |---------------------------------|----------------------------------| 
G |---------------------------------|----------------------------------| 
D#|---------------------------------|----------------------------------| 
A#|-1----------1--1-----------1-----|-0----------0--0----------5-------| 
F |-1--1-1-1-1-1--1--1--1-1---1-1-1-|-0--0-0-0-0-0--0--0--0-0--5-5-3h5-| 
A#|-1--1-1-1-1-1--1--1--1-1---1-1-1-|-0--0-0-0-0-0--0--0--0-0--5-5-3h5-| 


************************************ 

| x   Dead note 
| h   Hammer-on 
| p   Pull-off 
| ~   Hold out note 
|( )  Harmonic note taps with right hand 
| L   Left hand holds a note down 

************************************ 
  

top 5 | spoken
top rock'n roll
Outras músicas do artista letras do(a) Spoken
Top cifras »Top artistas »
Petaxxon Comunicação Online
Cifras.com.br - Melhor e mais completo site de cifras e tablaturas do Brasil
Mais de 1 milhão de acordes de músicas cadastradas desde 2003
As informações contidas no nosso site são colaborações de seus usuários e podem conter erros, sendo assim, não nos responsabilizamos sobre nenhuma destas.
close
menos
mais
close
Cor dos acordes:

Cor da letra:

 

save
close
close
 
redimensionar