Cifras e Tablaturas
Stanley Jordan

Stanley Jordan

Touch of blues

Cifras Cancelar Versão de Impressão Print

Stanley Jordan - Touch of blues

Tom: E

  • 0:00 / 0:00
 
  Q.   E S S E   E S S E E S S E   E E E E S S E 
|--------------|-----------------|---------------| 
|--------------|-----------------|-------5-------| 
|------------4-|-6-----4-6-----4-|-6-4---4-----4-| 
|----------6---|-----6-------6---|-----6-3---6---| 
|--------------|-4-------4-------|-4-----4-------| 
|----------4-7-|-----4-7-----4-7-|---7-4-----4-7-| 
 
 
  E S S E E S S E   E E E E  E  E 
|-----------------|------------12-| 
|-----------------|-------5-14----| 
|-6-----4-6-----4-|-6-6-4---------| 
|-----6-------6---|---------------| 
|-4-------4-------|-4-------------| 
|-----4-7-----4-7-|---7-4-3-13----| 
 
 
  S  S  E E E E E   S  S  E E E E E 
|---17-16-----9---|---17-16-----9---| 
|-----------------|-----------------| 
|-----------2-----|-----------5-----| 
|-----------------|-----------4-----| 
|-----------4-----|-----------------| 
|-2-------2-----2-|-4-------4-----4-| 
 
 
  S  S  E E E S S E   E E E E E E   S  S  E E E E E 
|---12--------------|---------9---|---17-16-----9---| 
|------14---5-------|---------0---|-----------------| 
|-------------------|-------------|-----------2-----| 
|-----------6-------|---------3---|-----------------| 
|-4-------4-------2-|-4-2---------|-----------4-----| 
|---------------4---|-----4-3---3-|-2-------2-----2-| 
 
 
  S  S  E E E E E   S  S  E E E S S E 
|---17-16-----9---|---12--------------| 
|-----------------|------14---5-------| 
|-----------5-----|-------------------| 
|-----------4-----|-----------6-------| 
|-----------------|-4-------4-------2-| 
|-4-------4-----4-|---------------4---| 
 
 
  E E E E E E   S  S  E E E E E   S  S  E E E  E E 
|---------9---|---17-16-----9---|---17-16-----16---| 
|---------0---|-----------------|------------------| 
|-------------|-----------2-----|-----------5------| 
|---------3---|-----------------|-----------4------| 
|-4-2---------|-----------4-----|------------------| 
|-----4-3---3-|-2-------2-----2-|-4-------4------4-| 
 
 
  Q  E  S  S E E   Q.   E  S S  E 
|------12-11-9-6-|-9------14---12-| 
|----------------|--------18------| 
|----------------|-7----7---------| 
|------11--------|-7----6---------| 
|------11--------|------7---------| 
|-6--6---------6-|-7-----------12-| 
 
 
   E  E E E  E  E   E E E E E E   Q  E  E S S E 
|-----------12----|-7-------4-7-|-9-------------| 
|---------2-------|---7---------|---------------| 
|---------0-------|---5---5-----|-------9-------| 
|-23-----------23-|-------4-----|---------------| 
|--0-22-0-------0-|-------------|------11-----2-| 
|----21-----------|-4---4-----4-|-9--9------4---| 
 
 
  E E E E E E   S  S  E E E E E   S  S  E E E E E 
|---------9---|---17-16-----9---|---17-16-----9---| 
|---------0---|-----------------|-----------------| 
|-------------|-----------2-----|-----------5-----| 
|---------3---|-----------------|-----------4-----| 
|-4-2---------|-----------4-----|-----------------| 
|-----4-3---3-|-2-------2-----2-|-4-------4-----4-| 
 
 
  S  S  E E E S S E   E E E E E E 
|---12--------------|---------9----| 
|------14---5-------|---------0----| 
|-------------------|--------------| 
|-----------6-------|---------3----| 
|-4-------4-------2-|-4-2----------| 
|---------------4---|-----4-3---3--| 
 
 
  S  S  E E E E E   S  S  E E E E E 
|---17-16-----9---|---17-16-----9---| 
|-----------------|-----------------| 
|-----------2-----|-----------5-----| 
|-----------------|-----------4-----| 
|-----------4-----|-----------------| 
|-2-------2-----2-|-4-------4-----4-| 
 
 
  S  S  E E E S S E   E E E E E E   S  S  E E E E E 
|---12--------------|---------9---|---17-16-----9---| 
|------14---5-------|---------0---|-----------------| 
|-------------------|-------------|-----------2-----| 
|-----------6-------|---------3---|-----------------| 
|-4-------4-------2-|-4-2---------|-----------4-----| 
|---------------4---|-----4-3---3-|-2-------2-----2-| 
 
 
  S  S  E E E  E E   Q  E  S  S E E 
|---17-16-----16---|------12-11-9-6-| 
|------------------|----------------| 
|-----------5------|----------------| 
|-----------4------|------11--------| 
|------------------|------11--------| 
|-4-------4------4-|-6--6---------6-| 
 
 
  Q.   E  S S  E    E  E E E  E  E   E E E E E E 
|-9------14---12-|-----------12----|-7-------4-7-| 
|--------18------|---------2-------|---7---------| 
|-7----7---------|---------0-------|---5---5-----| 
|-7----6---------|-23-----------23-|-------4-----| 
|------7---------|--0-22-0-------0-|-------------| 
|-7-----------12-|----21-----------|-4---4-----4-| 
 
 
  Q  E  E S S E   E E E E E E   Q  E E  E E 
|-9-------------|---------9---|--------12-9-| 
|---------------|---------0---|------3------| 
|-------9-------|-------------|------1------| 
|---------------|---------3---|-------------| 
|------11-----2-|-4-2---------|-1--1--------| 
|-9--9------4---|-----4-3---3-|-----------6-| 
 
 
  Q  E E  E  E   Q  E E E E   Q  E  Q  E 
|-9------12----|-7------4-7-|-9------------| 
|--------------|------------|--------------| 
|------6-------|------5-----|-------9------| 
|------5----23-|------4-----|--------------| 
|------------0-|------------|------11------| 
|-5--5---------|-4--4-----4-|-9--9-----9---| 
 
 
  Q  E E  E E   Q  E E  E  E   Q  E E S S E   E S S E E S S E   E E E E S S E 
|--------12-9-|-9------12----|-7------------|-----------------|----------------| 
|-------------|--------------|--------------|-----------------|-------5--------| 
|------7------|------6-------|------5-----4-|-6-----4-6-----4-|-6-4---4-----4--| 
|------6------|------5----23-|------4---6---|-----6-------6---|-----6-3---6----| 
|-------------|------------0-|--------------|-4-------4-------|-4-----4--------| 
|-6--6------6-|-5--5---------|-4--4-----4-7-|-----4-7-----4-7-|---7-4-----4-7--| 
 
 
  E S S E E S S E   E E E E S S E   E E E Q. 
|-----------------|---------------|------------*| 
|-----------------|-------5-------|-------5----*| 
|-6-----4-6-----4-|-6-4---4-----4-|-6-4---4----*| 
|-----6-------6---|-----6-3---6---|-----6-3----*| 
|-4-------4-------|-4-----4-------|-4-----4----*| 
|-----4-7-----4-7-|---7-4-----4-7-|---7-4------*| 
 
 
 
 

enviado porenviado por: Vallim guitar
cifra enviadaCorrigida por: sem correções
logo top cifrasComente
ico música do artistaMúsicas deste artista
ico curtiuCurtiu?
ico destaqueDestaque
Petaxxon Comunicação Online

Cifras.com.br - Melhor e mais completo site de cifras e tablaturas do Brasil Mais de 1 milhão de acordes de músicas cadastradas desde 2003
As informações contidas no nosso site são colaborações de seus usuários e podem conter erros, sendo assim, não nos responsabilizamos sobre nenhuma destas.

close
menos
mais
close
Cor dos acordes:

Cor da letra:

close
Alinhar acordes a direita Alinhar acordes a esquerda Alinhar acordes em baixo Alinhar acordes no topo
close
  Mostrar todos os acordes Esconder acordes muito fáceis Esconder acordes fáceis Esconder acordes intermediários
redimensionar
glossário