Cifras e Tablaturas
Starry Cat

Starry Cat

Happiness

Cifras Cancelar Versão de Impressão
cifras

Starry Cat - Happiness

fixar na tela  
Exibindo: vídeo-aula ver clipes redimensionar

Tom:

  
Verse 
"I did my hair in the mirror, I'm going to be..." 

e|--------------------------------------------------------| 
B|--------------------------------------------------------| 
G|-------8-8----------------------------------------------| 
D|----------9-9-------6-6---------4-4-2-2------6-6-2-2----| x4 
A|----7-7----------4-4---4-4---4-4----------4-4-----------| 
E|-0-0----------5-5---------2-2----------2-2--------------| 


Chorus 
"...someone new." 

e|--------------| 
B|--------------| 
G|--------------| 
D|--------------| 
A|--6-7-6-7-6-7-| 
E|-0---0---0----| 


Verse 
"I found the end of the night..." 

e|--------------------------------------------------------| 
B|--------------------------------------------------------| 
G|-------8-8----------------------------------------------| 
D|----------9-9-------6-6---------4-4-2-2------6-6-2-2----| x2 
A|----7-7----------4-4---4-4---4-4----------4-4-----------| 
E|-0-0----------5-5---------2-2----------2-2--------------| 


Chorus 
"...in your room." 

e|--------------| 
B|--------------| 
G|--------------| 
D|--------------| 
A|--6-7-6-7-6-7-| 
E|-0---0---0----| 


Bridge 
"Light, I feel it shining bright. I am all alone and I don't 
know where you could have gone." 

e|-----------------------------------------------------------| 
B|-----------------------------------------------------------| 
G|---------------------------------------------------6-------| 
D|6-6-6-6-6-6-6-6--4-4-4-4-4-4-4-4--6-6-6-6-6-6-6-6--7-------| x2 
A|6-6-6-6-6-6-6-6--4-4-4-4-4-4-4-4--6-6-6-6-6-6-6-6--7-------| 
E|4-4-4-4-4-4-4-4--2-2-2-2-2-2-2-2--4-4-4-4-4-4-4-4--5-------| 

e|-----------------------------------| 
B|-----------------------------------| 
G|-----------------------------------| 
D|--6-6-6-6-6-6-6-6-6-6-6-6-6-4------| x4 
A|------------------------------7----| 
E|-----------------------------------| 


Outro 
"I did not think that you would go." 

e|--------------------------------------------------------| 
B|--------------------------------------------------------| 
G|-------8-8----------------------------------------------| 
D|----------9-9-------6-6---------4-4-2-2------7-7-6-6-2--| 
A|----7-7----------4-4---4-4---4-4----------4-4--------2--| 
E|-0-0----------5-5---------2-2----------2-2-----------0--| 
  

top 5 | starry cat
top rock'n roll
Outras músicas do artista letras do(a) Starry Cat
Top cifras »Top artistas »
Petaxxon Comunicação Online
Cifras.com.br - Melhor e mais completo site de cifras e tablaturas do Brasil
Mais de 1 milhão de acordes de músicas cadastradas desde 2003
As informações contidas no nosso site são colaborações de seus usuários e podem conter erros, sendo assim, não nos responsabilizamos sobre nenhuma destas.
close
menos
mais
close
Cor dos acordes:

Cor da letra:

 

save
close
close
 
redimensionar