Cifras e Tablaturas
Starset

Starset

Ricochet

Cifras Cancelar Versão de Impressão
cifras

Starset - Ricochet

fixar na tela  
Exibindo: vídeo-aula ver clipes redimensionar
  
Intro/verse one 
D#|-----------|-----------|-----------|-----------| 
A#|-----------|-----------|-----------|-----------| 
F#|-----------|-----------|-----------|-----------| 
C#|-4----x----|-4----x----|-0----x----|-7----x----| 
G#|-4----x----|-4----x----|-0----x----|-7----x----| 
C#|-4----x----|-4----x----|-0----x----|-7----x----| REPEAT 4X 


Verse two 
D#|----------|----------|----------|----------| 
A#|----------|----------|----------|----------| 
F#|----------|----------|----------|----------| 
C#|----------|----------|----------|----------| 
G#|----------|----------|----------|----------| 
C#|-4--------|-0--------|-7--------|-2--------| REPEAT 1X 


Verse one 
D#|-----------|-----------|-----------|-----------| 
A#|-----------|-----------|-----------|-----------| 
F#|-----------|-----------|-----------|-----------| 
C#|-4----x----|-4----x----|-0----x----|-7----x----| 
G#|-4----x----|-4----x----|-0----x----|-7----x----| 
C#|-4----x----|-4----x----|-0----x----|-7----x----| REPEAT 3X 


Chorus 
D#|-----------------|-----------------|-----------------|-----------------| 
A#|-----------------|-----------------|-----------------|-----------------| 
F#|-----------------|-----------------|-----------------|-----------------| 
C#|-4-4-4-4-4-4-4-4-|-4-4-4-4-4-4-4-4-|-0-0-0-0-0-0-0-0-|-0-0-0-0-0-0-0-0-| 
G#|-4-4-4-4-4-4-4-4-|-4-4-4-4-4-4-4-4-|-0-0-0-0-0-0-0-0-|-0-0-0-0-0-0-0-0-| 
C#|-4-4-4-4-4-4-4-4-|-4-4-4-4-4-4-4-4-|-0-0-0-0-0-0-0-0-|-0-0-0-0-0-0-0-0-| 

D#|-----------------|-----------------|-----------------|-------------| 
A#|-----------------|-----------------|-----------------|-------------| 
F#|-----------------|-----------------|-----------------|-------------| 
C#|-7-7-7-7-7-7-7-7-|-7-7-7-7-7-7-7-7-|-2-2-2-2-2-2-2-2-|-2-2---2-2---| 
G#|-7-7-7-7-7-7-7-7-|-7-7-7-7-7-7-7-7-|-2-2-2-2-2-2-2-2-|-2-2---2-2---| 
C#|-7-7-7-7-7-7-7-7-|-7-7-7-7-7-7-7-7-|-2-2-2-2-2-2-2-2-|-2-2---2-2---| REPEAT 1X 



Verse three 
D#|-----------------|-----------------|-----------------|-----------------| 
A#|-----------------|-----------------|-----------------|-----------------| 
F#|-----------------|-----------------|-----------------|-----------------| 
C#|-----------------|-----------------|-----------------|-----------------| 
G#|-----------------|-----------------|-7-x-x-x-7-x-x-x-|-7-x-x-x-7-x-x-x-| 
C#|-4-x-x-x-4-x-x-x-|-4-x-x-x-4-x-x-x-|-----------------|-----------------| 

D#|-----------------|-----------------|-----------------|-----------------| 
A#|-----------------|-----------------|-----------------|-----------------| 
F#|-----------------|-----------------|-----------------|-----------------| 
C#|-----------------|-----------------|-----------------|-----------------| 
G#|-----------------|-----------------|-----------------|-----------------| 
C#|-7-x-x-x-7-x-x-x-|-7-x-x-x-7-x-x-x-|-2-x-x-x-2-x-x-x-|-2-x-x-x-2-x-x-x-| 


Verse two 
D#|----------|----------|----------|----------| 
A#|----------|----------|----------|----------| 
F#|----------|----------|----------|----------| 
C#|----------|----------|----------|----------| 
G#|----------|----------|----------|----------| 
C#|-4--------|-0--------|-7--------|-2--------| 


Pre-Chorus 
D#|-----------------|-----------------|-----------------|-----------------| 
A#|-----------------|-----------------|-----------------|-----------------| 
F#|-----------------|-----------------|-----------------|-----------------| 
C#|-4-4-4-4-4-4-4-4-|-4-4-4-4-4-4-4-4-|-0-0-0-0-0-0-0-0-|-0-0-0-0-0-0-0-0-| 
G#|-4-4-4-4-4-4-4-4-|-4-4-4-4-4-4-4-4-|-0-0-0-0-0-0-0-0-|-0-0-0-0-0-0-0-0-| 
C#|-4-4-4-4-4-4-4-4-|-4-4-4-4-4-4-4-4-|-0-0-0-0-0-0-0-0-|-0-0-0-0-0-0-0-0-| 

D#|-----------------|-----------------|-----------------|-------------| 
A#|-----------------|-----------------|-----------------|-------------| 
F#|-----------------|-----------------|-----------------|-------------| 
C#|-7-7-7-7-7-7-7-7-|-7-7-7-7-7-7-7-7-|-2-2-2-2-2-2-2-2-|-2-2---2-2---| 
G#|-7-7-7-7-7-7-7-7-|-7-7-7-7-7-7-7-7-|-2-2-2-2-2-2-2-2-|-2-2---2-2---| 
C#|-7-7-7-7-7-7-7-7-|-7-7-7-7-7-7-7-7-|-2-2-2-2-2-2-2-2-|-2-2---2-2---| REPEAT 1X 


Chorus 
D#|-----------------|-----------------|-----------------|-----------------| 
A#|-----------------|-----------------|-----------------|-----------------| 
F#|-----------------|-----------------|-----------------|-----------------| 
C#|-4-4-4-4-4-4-4-4-|-4-4-4-4-4-4-4-4-|-0-0-0-0-0-0-0-0-|-0-0-0-0-0-0-0-0-| 
G#|-4-4-4-4-4-4-4-4-|-4-4-4-4-4-4-4-4-|-0-0-0-0-0-0-0-0-|-0-0-0-0-0-0-0-0-| 
C#|-4-4-4-4-4-4-4-4-|-4-4-4-4-4-4-4-4-|-0-0-0-0-0-0-0-0-|-0-0-0-0-0-0-0-0-| 

D#|-----------------|-----------------|-----------------|-------------| 
A#|-----------------|-----------------|-----------------|-------------| 
F#|-----------------|-----------------|-----------------|-------------| 
C#|-7-7-7-7-7-7-7-7-|-7-7-7-7-7-7-7-7-|-2-2-2-2-2-2-2-2-|-2-2---2-2---| 
G#|-7-7-7-7-7-7-7-7-|-7-7-7-7-7-7-7-7-|-2-2-2-2-2-2-2-2-|-2-2---2-2---| 
C#|-7-7-7-7-7-7-7-7-|-7-7-7-7-7-7-7-7-|-2-2-2-2-2-2-2-2-|-2-2---2-2---| REPEAT 1X 


Bridge 
D#|-------------| 
A#|-------------| 
F#|-------------| 
C#|-5-5-5-5-----| 
G#|-5-5-5-5-----| 
C#|-5-5-5-5-----| REPEAT 6X 

D#|-----------------| 
A#|-----------------| 
F#|-----------------| 
C#|-5-5-5-5-5-5-5-5-| 
G#|-5-5-5-5-5-5-5-5-| 
C#|-5-5-5-5-5-5-5-5-| 


Outro (fades out) 
D#|----------17---16--|-----------------| 
A#|-------15----------|-15-------14-----| 
F#|----14-------------|-------14--------| 
C#|-16----------------|----16-----------| 
G#|-------------------|-----------------| 
C#|-------------------|-----------------| REPEAT 5X 


************************************ 

| x   Dead note 


************************************ 
  

top 5 | starset
top rock'n roll
Outras músicas do artista letras do(a) Starset
Top cifras »Top artistas »
Petaxxon Comunicação Online
Cifras.com.br - Melhor e mais completo site de cifras e tablaturas do Brasil
Mais de 1 milhão de acordes de músicas cadastradas desde 2003
As informações contidas no nosso site são colaborações de seus usuários e podem conter erros, sendo assim, não nos responsabilizamos sobre nenhuma destas.
close
menos
mais
close
Cor dos acordes:

Cor da letra:

 

save
close
close
 
redimensionar