Cifras e Tablaturas
State Champs

State Champs

All Or Nothing

Cifras Cancelar Versão de Impressão
cifras

State Champs - All Or Nothing

fixar na tela  
Exibindo: vídeo-aula ver clipes redimensionar
   
Capo 4 

  INTRO & VERSES 1& 2 

     EM    C     G    D/F 

e|---3-----3-----3-----3-----------------------------------------|X8 WITH INTRO BUT JUST VERSE IS X4 
B|---3-----3-----3-----3-----------------------------------------| 
G|---------------------2-----------------------------------------| 
D|---2-----2-----------------------------------------------------|X4 
A|---2-----3-----2-----------------------------------------------| 
E|---------------3-----2-----------------------------------------| 

ALL Chorus' 

     C    EM    G    D/F 
  
e|---3-----3----3-----3------------------------------------------| 
B|---3-----3----3-----3------------------------------------------| 
G|--------------------2------------------------------------------| 
D|---2-----2-----------------------------------------------------|X2 
A|---3-----2----2------------------------------------------------| 
E|--------------3-----2------------------------------------------| 

BRIDGE PART 1 (STRUM C 4 TIMES THEN MUTE UNTIL BEAT COMES BACK) 

     C      G    D/F 

e|---3------3-----3----------------------------------------------| 
B|---3------3-----3----------------------------------------------| 
G|----------------2----------------------------------------------| 
D|---2-----------------------------------------------------------|X2 
A|---3------2----------------------------------------------------| 
E|----------3-----2----------------------------------------------| 

BRIDGE PART 2  

     A    C    G    D/F 

e|---3----3----3----3--------------------------------------------| 
B|---3----3----3----3--------------------------------------------| 
G|------------------2--------------------------------------------| 
D|---2----2------------------------------------------------------|x2 
A|--------3----2-------------------------------------------------| 
E|-------------3----2--------------------------------------------| 

Pre-Chorus FOR FINAL Chorus IS LITERALLY INTRO AND VERSE CHORDS AGAIN 

      EM   C    G     D/F 

e|----3----3-----3-----3-----------------------------------------| 
B|----3----3-----3-----3-----------------------------------------| 
G|---------------------2-----------------------------------------| 
D|----2----2-----------------------------------------------------|x3 
A|----2----3-----2-----------------------------------------------| 
E|---------------3-----2-----------------------------------------| 

REPEAT Chorus 

ORDER: 
VERSE 
Chorus 
VERSE 
Chorus 
BRIDGE PART 1 
BRIDGE PART 2 
INTRO/PREChorus 
FINAL Chorus 
  

cifra enviadasem correções
enviado porenviada por:jessgomes
top 5 | state champs
top rock'n roll
Outras músicas do artista letras do(a) State Champs
Top cifras »Top artistas »
Petaxxon Comunicação Online
Cifras.com.br - Melhor e mais completo site de cifras e tablaturas do Brasil
Mais de 1 milhão de acordes de músicas cadastradas desde 2003
As informações contidas no nosso site são colaborações de seus usuários e podem conter erros, sendo assim, não nos responsabilizamos sobre nenhuma destas.
close
menos
mais
close
Cor dos acordes:

Cor da letra:

 

save
close
close
 
redimensionar