Cifras e Tablaturas
Steel Panther

Steel Panther

Crossfire

Cifras Cancelar Versão de Impressão
cifras

Steel Panther - Crossfire

fixar na tela  
Exibindo: vídeo-aula ver clipes redimensionar

Tom:

  
Intro 
e|----------------------------------------|----------------------------------| 
B|----------------------------------------|----------------------------------| 
G|-------------BASS AND DRUMS-------------|----------------------------------| 
D|----------------------------------------|-5~---7-5-------------------------| 
A|----------------------------------------|-3~-------9-7-5-------------------| 
E|----------------------------------------|----------------7-----------------| 

Verse 
e|-----------|---------------|------------|----------------------------------| 
B|-----------|---------------|------------|----------------------------------| 
G|-----------|---------------|-2~--2--0-2-|----------------------------------| 
D|2~--9--7/9-|-5~---5~---5~--|-2~--2--0-2-|-5~--/7-5-------------------------| 
A|2~--7--5/7-|-5~---5~---5~--|-0~---------|-3~-------9-7-5-------------------| 
E|0~---------|-3~---3~---3~--|------------|----------------7-----------------| 

e|-----------|---------------|------------|---------------------|------------| 
B|-----------|---------------|------------|---------------------|------------| 
G|-----------|---------------|-2~--2--0-2-|---------------------|------------| 
D|2~--9--7/9-|-5~---5~---5~--|-2~--2--0-2-|-5~--/7-5------------|-2~---------| 
A|2~--7--5/7-|-5~---5~---5~--|-0~---------|-3~-------9-7-5------|-2~---------| 
E|0~---------|-3~---3~---3~--|------------|----------------7----|-0~---------| 

Solo 
e|---------------------------------------------------------------------------| 
B|-12~p10p7p0h7h10--14p10p7p0h7h10--15p10p7p0h7h10--17p10p7p0h7h10-17b~~rp10-| 
G|---------------------------------------------------------------------------| 
D|---------------------------------------------------------------------------| 
A|---------------------------------------------------------------------------| 
E|---------------------------------------------------------------------------| 
   T                 T               T               T              T 

e|------7-10p7-----7-10p7----------------------------------------------------| 
B|-/10b--------10b--------10p7----7----7-------------------------------------| 
G|-----------------------------10---10---10-9-7---9-9b-7---7-----------------| 
D|----------------------------------------------9--------9---9-7-------------| 
A|---------------------------------------------------------------9-----------| 
E|---------------------------------------------------------------------------| 

e|---------------------------------------------------------------------------| 
B|----------------------------------------------------^----------------------| 
G|-----------/7~-------/7b\-------/9-------9b-------9/-\--7~~----------------| 
D|-/9~-----------------------------------------------------------------------| 
A|---------------------------------------------------------------------------| 
E|---------------------------------------------------------------------------| 
                                                    P.H.   P.H. 
e|----17~-15p12--------------------------------------|-------12-14-15-17-17b~| 
B|--------------15p12--------------------------------|-13-15-----------------| 
G|-//-----------------15p14p12-------------------12~-|-----------------------| 
D|-----------------------------14p12-----------------|-----------------------| 
A|-----------------------------------14p12\10--------|-----------------------| 
E|--------------------------------------------12-----|-----------------------| 

Outro 
e|-----------|---------------|------------|----------------------------------| 
B|-----------|---------------|------------|----------------------------------| 
G|-----------|---------------|-2~--2--0-2-|----------------------------------| 
D|2~--9--7/9-|-5~---5~---5~--|-2~--2--0-2-|-5~--/7-5-------------------------| 
A|2~--7--5/7-|-5~---5~---5~--|-0~---------|-3~-------9-7-5-------------------| 
E|0~---------|-3~---3~---3~--|------------|----------------7-----------------| 

e|-----------|---------------|------------|----------------------------------| 
B|-----------|---------------|------------|----------------------------------| 
G|-----------|---------------|-2~--2--0-2-|----------------------------------| 
D|2~--9--7/9-|-5~---5~---5~--|-2~--2--0-2-|-5~--/7-5-------------------------| 
A|2~--7--5/7-|-5~---5~---5~--|-0~---------|-3~-------9-7-5-------------------| 
E|0~---------|-3~---3~---3~--|------------|----------------7-----------------| 

e|-----------------|--------------| 
B|-----------------|--------------| 
G|-----------------|--------------| 
D|-7~--7-5---------|-2~--9--7-9~\-| 
A|-5~------9-7-5---|-2~--7--5-7~\-| 
E|---------------7-|-0~-----------| 



************************************ 

| ~  Vibrato 
| /  Slide up 
| h  Hammer-on 
| p  Pull-off 
| b  Bend 
| \  Slide down 

************************************ 
  

top 5 | steel panther
top heavy metal
Outras músicas do artista letras do(a) Steel Panther
Top cifras »Top artistas »
Petaxxon Comunicação Online
Cifras.com.br - Melhor e mais completo site de cifras e tablaturas do Brasil
Mais de 1 milhão de acordes de músicas cadastradas desde 2003
As informações contidas no nosso site são colaborações de seus usuários e podem conter erros, sendo assim, não nos responsabilizamos sobre nenhuma destas.
close
menos
mais
close
Cor dos acordes:

Cor da letra:

 

save
close
close
 
redimensionar