Cifras e Tablaturas
Steely Dan

Steely Dan

Black Friday

Ano: 2006
Album : The Definitive Collection

Cifras Cancelar Versão de Impressão
cifras

Steely Dan - Black Friday

fixar na tela  
Exibindo: vídeo-aula ver clipes redimensionar
  
 Intro (Fade In) 
  Q=128(8=s8) 
 4/4 
  Gtr I (El. Gtr. w/ light dist.) 
  W          W          W          W 
|----------|----------|----------|------| 
|----------|----------|----------|------| 
|----------|----------|----------|------| 
|----------|----------|----------|------| 
|----------|----------|----------|------| 
|----------|----------|----------|------| 


  PM|     PM|       PM|     PM| 
  E E E E E E E E   E E E E E E E E 
|-----------------|--------------------| 
|-----------------|--------------------| 
|-----------------|--------------------| 
|---------------2-|-------------2-0tr1-| 
|-----4-5-----4---|-----4-5------------| 
|-0-0-----0-0-----|-0-0-----0-0--------| 


  PM|     PM|       PM|     PM| 
  E E E E E E E E   E E E E E E E E 
|-----------------|---------------------|| 
|-----------------|---------------------|| 
|-----------------|---------------------|| 
|---------------2-|-------------2-0tr1--|| 
|-----4-5-----4---|-----4-5-------------|| 
|-0-0-----0-0-----|-0-0-----0-0---------|| 


   1st - 3rd Verses 
    $ 
    PM|     PM|          PM|     PM| 
    E E E E E E E E      E E E E E E E E 
||---------------------|--------------------| 
||o--------------------|--------------------| 
||---------------------|--------------------| 
||----------------2----|-------------2-0tr1-| 
||o-----4-5-----4------|-----4-5------------| 
||--0-0-----0-0--------|-0-0-----0-0--------| 
| 
|   Gtr II (El. Gtr. w/ dist.) 
|   PM|     PM| 
|   e e E E e e E E      W 
||---------------------|--------------------| 
||o--------------------|--------------------| 
||--------------2-0tr1-|--------------------| 
||---------------------|--------------------| 
||o-----4-5------------|--------------------| 
||--0-0-----0-0--------|--------------------| 


  PM|     PM|       PM|     PM| 
  E E E E E E E E   E E E E E E E E 
|-----------------|--------------------| 
|-----------------|--------------------| 
|-----------------|--------------------| 
|---------------2-|-------------2-0tr1-| 
|-----4-5-----4---|-----4-5------------| 
|-0-0-----0-0-----|-0-0-----0-0--------| 
| 
| W                 W 
|-----------------|--------------------| 
|-----------------|--------------------| 
|-----------------|--------------------| 
|-----------------|--------------------| 
|-----------------|--------------------| 
|-----------------|--------------------| 


  PM|     PM|       PM|     PM| 
  E E E E E E E E   E E E E E E E E 
|-----------------|--------------------| 
|-----------------|--------------------| 
|-----------------|--------------------| 
|---------------2-|-------------2-0tr1-| 
|-----4-5-----4---|-----4-5------------| 
|-0-0-----0-0-----|-0-0-----0-0--------| 
| 
| W                 W 
|-----------------|--------------------| 
|-----------------|--------------------| 
|-----------------|--------------------| 
|-----------------|--------------------| 
|-----------------|--------------------| 
|-----------------|--------------------| 


  PM|              PM---|        PM-|      PM--| 
  E E     E      E E    E E E    E  E E E  E   E   E  E 
|-----------------------------|-----------------------------| 
|-----------------------------|-----------------------------| 
|-----------------------------|-----------------------------| 
|---------------------------2-|--------------------2--0tr1--| 
|---------4------5--------4---|-------4-5-------------------| 
|-0-0--------------0----0-----|--0--0------0---0------------| 
| 
| |----3----|                              |--3--| 
| Q   Q     Q      Q      E E   +E  Q   E  E E   E Q 
|-----------------------------|-----------------------------| 
|-----2b3---2pb3---2b3====2-2-|-(2)-2---2r------------------| 
|-----------------------------|------------3p2---0----------| 
|-----------------------------|--------------------2\-------| 
|-----------------------------|-----------------------------| 
|-----------------------------|-----------------------------| 


  PM|      PM-|          PM|      PM-| 
  E E E E  E  E  E   E   E E E E  E  E  E   E 
|----------------------|-------------------------| 
|----------------------|-------------------------| 
|----------------------|-------------------------| 
|--------------------2-|----------------2---0tr1-| 
|-----4-5--------4-----|-----4-5-----------------| 
|-0-0------0--0--------|-0-0------0--0-----------| 
| 
| Q   E E +Q    +Q       Q   E E +Q    +Q 
|----------------------|-------------------------| 
|-------7-(7)---(7)\---|-------7-(7)---(7)\------| 
|-------7-(7)---(7)\---|-------7-(7)---(7)\------| 
|----------------------|-------------------------| 
|----------------------|-------------------------| 
|----------------------|-------------------------| 


  PM|      PM-|          PM|      PM-| 
  E E E E  E  E  E   E   E E E E  E  E  E   E 
|----------------------|--------------------------| 
|----------------------|--------------------------| 
|----------------------|--------------------------| 
|--------------------2-|----------------2---0tr1--| 
|-----4-5--------4-----|-----4-5------------------| 
|-0-0------0--0--------|-0-0------0--0------------| 
| 
| Q   E E +Q    +Q       Q   E E +Q    +Q 
|----------------------|--------------------------| 
|-------7-(7)---(7)\---|-------7-(7)---(7)\-------| 
|-------7-(7)---(7)\---|-------7-(7)---(7)\-------| 
|----------------------|--------------------------| 
|----------------------|--------------------------| 
|----------------------|--------------------------| 


  PM|      PM-|          PM|      PM-| 
  E E E E  E  E  E   E   E E E E  E  E  E   E 
|----------------------|-------------------------| 
|----------------------|-------------------------| 
|----------------------|-------------------------| 
|--------------------2-|----------------2---0tr1-| 
|-----4-5--------4-----|-----4-5-----------------| 
|-0-0------0--0--------|-0-0------0--0-----------| 
| 
| Q   E E +Q    +Q       Q   E E +Q    +Q 
|----------------------|-------------------------| 
|-------7-(7)---(7)\---|-------7-(7)---(7)\------| 
|-------7-(7)---(7)\---|-------7-(7)---(7)\------| 
|----------------------|-------------------------| 
|----------------------|-------------------------| 
|----------------------|-------------------------| 


  PM|                   PM---|                  PM------|            PM-| 
  E  E      E     E     E    E     E    E       E       E     E  E   E  E   E   E 
|--------------------------------------------|------------------------------------|| 
|--------------------------------------------|------------------------------------|| 
|--------------------------------------------|------------------------------------|| 
|---------------------------------------2----|------------------------------------|| 
|-----------4-----5----------------4---------|----------------4--5----------4-----|| 
|-0--0------------------0----0---------------|--0-------0------------0--0-------5-|| 
| 
|           |---3----|  |---3---|  |---3---|    |----3-----| 
| E  E     +E   E    E  E  E    E  E  E    E    E     E    E  E  E  +Q     +E   E 
|-------------------12-----------------------|------------------------------------|| 
|--------------12------15p12---14p12-14p==12-|-------12---------------------------|| 
|---14b16-(14)-------------------------------|-14b15------12----------------------|| 
|--------------------------------------------|---------------14-14-(14)---(14)\---|| 
|--------------------------------------------|------------------------------------|| 
|--------------------------------------------|------------------------------------|| 


 Chorus 
                                                                 To Coda 
  +Q.   E +Q.   E   +Q.   E +Q.   E   +Q.   E +Q.   e   E E E E E E E E 
|-----------------|-----------------|-----------------|------------------|| 
|-----------------|-----------------|-----------------|---------5--------|| 
|-----------------|-----------------|-----------------|---4-6-4----------|| 
|-----------------|-----------------|-----------------|-----------5------|| 
|-----------------|---------------6-|-(6)---5-(5)-----|-------------7-7--|| 
|-(5)---3-(3)---2-|-(2)---3-(3)-----|---------------7-|------------------|| 


 Interlude 
  1. 
  PM|       PM|           PM--|           PM--| 
  E E E   E E E E   E     E   E   E   E   E   E   E E 
|-----------------------|--------------------------------| 
|-----------------------|--------------------------------| 
|-----------------------|--------------------------------| 
|-------------------2---|-------------------------2-0tr1-| 
|-----4---5-----4-------|---------4---5------------------| 
|-0-0-------0-0---------|-0---0-----------0---0----------| 
| 
| Gtr II 
|               |--3--|   |--3--| |--3--| |--3--| 
| Q   H         E E   E   E E   E E E   E E E   E E E 
|---------------0-------|--------------------------------| 
|-----------------3---0-|--------------------------------| 
|-----2b4---------------|-2-0-----0----------------------| 
|-----------------------|-------2---2---0-2-0------------| 
|-----------------------|-----------------------2-0------| 
|-----------------------|---------------------------3----| 


  PM----|           PM--|                 PM----|           PM| 
  E     E   E   E   E   E   E   E         E     E   E   E   E E  E E 
|--------------------------------------|------------------------------------|| 
|--------------------------------------|-----------------------------------o|| 
|--------------------------------------|------------------------------------|| 
|-------------------------------2------|-------------------------2-0tr1-----|| 
|-----------4---5-----------4----------|------------4---5------------------o|| 
|-0-----0-----------0---0--------------|--0-----0-----------0-0-------------|| 
| 
| |---3---| |--3--| |--3--| |--3--|       |---3---| |--3--| 
| E   E   E E E   E E E   E E E   E      +E   E   E E E   E E Q. 
|---------0----------------------------|------------------------------------|| 
|-----0-----3p0---2p0-1p==0------------|-----------------------------------o|| 
|-2b4-----------------------2p0---2b4==|=(2)r-2---0-2-0-----0-0-------------|| 
|--------------------------------------|------------------2-----------------|| 
|--------------------------------------|-----------------------------------o|| 
|--------------------------------------|------------------------------------|| 


 Guitar Solo 
  2. 
  PM|         PM-|          PM----|               PM--| 
  E E E    E  E  E  E  E    E     E   E     E     E   E   E   E 
|------------------------|-------------------------------------------| 
|------------------------|-------------------------------------------| 
|------------------------|-------------------------------------------| 
|----------------------2-|--------------------------------2---0tr1---| 
|-----4----5--------4----|------------4-----5------------------------| 
|-0-0---------0--0-------|--0-----0---------------0---0--------------| 
| 
|                   ~~~~~~~~~~~~ 
|                           |---3---| |----3----| |--3--| 
| Q   Q      +Q    +Q      +E   E   E E  E    a E E E   E S S S    S 
|------------------------|------2------------------------------------| 
|------------------------|----------5-2-------2h3p2-----2------------| 
|-----4b6====(4)---(4)---|-(4)r---------(3)---------4-----4-2------2-| 
|------------------------|------------------------------------5------| 
|------------------------|-------------------------------------------| 
|------------------------|-------------------------------------------| 


  PM--|           PM| 
  E   E   E   E   E E E E 
|--------------------------| 
|--------------------------| 
|--------------------------| 
|-----------------------2--| 
|---------4---5-------4----| 
|-0---0-----------0-0------| 
| 
| S S S S S S S S H 
|--------------------------| 
|--------------------------| 
|--------------------------| 
|-5-2---2------------------| 
|-----5---5-4-2------------| 
|---------------3p0--------| 


    PM--|             PM--|                 PM-----|      PM-| 
    E   E   E   E     E   E   E   E         E      E E E  E  E  E      E 
|----------------------------------------|------------------------------------| 
|----------------------------------------|------------------------------------| 
|----------------------------------------|------------------------------------| 
|-----------------------------2---0tr1---|----------------------2------0tr1---| 
|-----------4---5------------------------|-----------4-5----------------------| 
|---0---0-------------0---0--------------|--0------0------0--0----------------| 
| 
|                                                      ~~~~~~ 
|   |--3--| |--3--|   |--3--| |---3----| 
| a E E   E E E   E a E E   E E E      E   +Q        E E +Q     E     +S    S 
|----------------------------------------|------------------------------------| 
|--------------------------------------8-|-(8)b8.5-------------10b12r(10)p==8-| 
|-----------------------7-----9-7--------|-----------9-9-(9)------------------| 
|-----------5-----5-7s9-----9------------|------------------------------------| 
|-5h7-5---7---7--------------------------|------------------------------------| 
|----------------------------------------|------------------------------------| 


   PM------------|              PM| 
   E             E        E   E E E E     E 
|---------------------------------------------| 
|---------------------------------------------| 
|---------------------------------------------| 
|-----------------------------------------2---| 
|-------------------------4---5-----4---------| 
|--0-------------0--------------0-0-----------| 
| 
|                                         ~~~ 
|  |--------3--------| 
|  E     +E         +E   +H         E    +E 
|---------------------------------------------| 
|-10b12r(10)b12====(10)-(10)r-------8b10r(8)--| 
|---------------------------------------------| 
|---------------------------------------------| 
|---------------------------------------------| 
|---------------------------------------------| 


   PM-|         PM| 
   E  E E   E   E E     E     E 
|----------------------------------| 
|----------------------------------| 
|----------------------------------| 
|-----------------------2-----0tr1-| 
|-------4---5----------------------| 
|--0--0---------0-0----------------| 
| 
|  ~~~ 
|       |--3--| |-----3-----| 
| +Q    E E   E Q   a Q   a Q 
|----------------------------------| 
|-(8)------------------------------| 
|-------9p7-----7---9p7---9p7------| 
|-------------9--------------------| 
|----------------------------------| 
|----------------------------------| 


    PM|               PM|               PM---|       PM---| 
    E E     E     E   E E   E      E    E    E E E   E    E E   E 
|------------------------------------|--------------------------------| 
|------------------------------------|--------------------------------| 
|------------------------------------|--------------------------------| 
|----------------------------------2-|----------------------2---0tr1--| 
|-----------4-----5---------4--------|---------4-5--------------------| 
|---0-0---------------0-0------------|--0----0-------0----0-----------| 
| 
|   |-----3-----|     |---3---|                  |--3---| 
| a Q   a Q   a Q   a Q   Q   Q        +Q      E E E    E Q     E 
|------------------------------------|--------------------------------| 
|------------------------------------|-----------8-----10-------------| 
|-9p7---9p7---9p7-------------7b9====|=(7)r\---9---9----------/11-----| 
|-------------------9s7---5----------|--------------------------------| 
|------------------------------------|--------------------------------| 
|------------------------------------|--------------------------------| 


   PM---|            PM---| 
   E    E      E  E  E    E     E      E 
|-------------------------------------------| 
|-------------------------------------------| 
|-------------------------------------------| 
|-------------------------------2------0tr1-| 
|--------------4--5-------------------------| 
|--0----0------------0----0-----------------| 
| 
|  |---3---|         |---3---| 
|  E  E    E   E  E  E  E    E  E     +E 
|------------------------------14b15r(14)---| 
|-10------12-----12----15-------------------| 
|----11------/12----12------12--------------| 
|-------------------------------------------| 
|-------------------------------------------| 
|-------------------------------------------| 


    PM-|            PM-|         PM--|       PM| 
    E  E E  E       E  E E E     E   E E  E  E E       E    E 
|----------------------------|--------------------------------| 
|----------------------------|--------------------------------| 
|----------------------------|--------------------------------| 
|--------------------------2-|--------------------------------| 
|--------4--5------------4---|---------4--5------------4------| 
|---0--0------------0--0-----|---0---0-------0-0------------5-| 
| 
|   ~~~~            ~~~~~~~~~~~~~~~~~ 
|                                            |-----3------| 
|  +Q    E  E      +H           +Q.       E  Q    Q       Q 
|-(14)-----------------------|--------------------------------| 
|----------15b17==(15)-------|-(15)r-----12-14---14b15---14---| 
|----------------------------|--------------------------------| 
|----------------------------|--------------------------------| 
|----------------------------|--------------------------------| 
|----------------------------|--------------------------------| 


  +Q.          E +Q.             E       +Q.              E    +Q.      E 
|-------------------------------------|-----------------------------------| 
|-------------------------------------|-----------------------------------| 
|-------------------------------------|-----------------------------------| 
|-------------------------------------|-----------------------------------| 
|-------------------------------------|---------------------------------6-| 
|-(5)----------3-(3)-------------2----|--(2)--------------3----(3)--------| 
| 
|  |--3--|        |--3---|  |---3---|     |--3---|  |---3----| 
|  E  E  E  E  E  E   E  E  E  E    E     E   E  E  E   E    E  E   Q. 
|-------------------------------------|-----------------------------------| 
|-------------------------------------|-----------------------------------| 
|-16p14-16--------------------14------|-/16--16-16-12-------12------------| 
|----------17-14--------14-17------17-|------------(0)-14------12--14-----| 
|----------------14--17---------------|-----------------------------------| 
|-------------------------------------|-----------------------------------| 


  +Q.                  E    +Q.           e 
|---------------------------------------------| 
|---------------------------------------------| 
|---------------------------------------------| 
|---------------------------------------------| 
|-(6)------------------5----(5)---------------| 
|-----------------------------------------7---| 
| 
|  |-----5------| 
|  S    S   S S S  S S S  S  S  S  S S E +E 
|---------------------------------------------| 
|-----(10)------------------------------------| 
|---------------------------------------------| 
|----------------------------7--9-10-7-9-(9)/-| 
|-------------7-9-10-7-9-10-------------------| 
|----------10---------------------------------| 


                                 PM-|          PM| 
  E  E    E  E  E  E  E    E     E  E   E    E E E E E 
|----------------------------|--------------------------| 
|---------------5------------|--------------------------| 
|----4----6--4---------------|--------------------------| 
|------------------5---------|-----------------------2--| 
|---------------------7----7-|----------4----5-----4----| 
|----------------------------|---0--0----------0-0------| 
| 
| E  Q       E  E  E  Q         +Q     +E    E E E E E 
|---14b16---14-12------------|--------------------------| 
|-----------------12---------|--------------------------| 
|--------------------13b14r==|=(13)---(13)\----7-7-7-9--| 
|----------------------------|--------------/9----------| 
|----------------------------|--------------------------| 
|----------------------------|--------------------------| 


    PM|      PM-|            PM--|       PM| 
    E E E E  E  E E   E      E   E  E  E E E  E   E 
|--------------------------|--------------------------| 
|--------------------------|--------------------------| 
|--------------------------|--------------------------| 
|-----------------2---0tr1-|----------------------2---| 
|-------4-5----------------|--------4--5------4-------| 
|---0-0------0--0----------|-0---0-------0-0----------| 
| 
|         ~~~~~~                    ~~~ 
| a E E E E +Q    Q          S S E +H         S S S S 
|--------------------------|--------------------------| 
|---------5-(5)------------|-7p5-------------10-8-----| 
|-----------------7b9------|-----7-(7)------------9p7-| 
|-9s7-5--------------------|--------------------------| 
|-------7------------------|--------------------------| 
|--------------------------|--------------------------| 


                        D.S. al Coda 
  PM---|              PM---| 
  E    E E        E   E    E E E 
|-------------------------------------|| 
|-------------------------------------|| 
|-------------------------------------|| 
|----------------------------2-0tr1---|| 
|--------4--------5-------------------|| 
|-0----0--------------0----0----------|| 
| 
| |3-|   |3-| 
| E  Q   E  Q        +Q      Q 
|-------------------------------------|| 
|--------8-10b12====(10)r\------------|| 
|-9-/9--------------------------------|| 
|-------------------------------------|| 
|-------------------------------------|| 
|-------------------------------------|| 


 Outro 
  & 
  PM|      PM-----------|           PM-----------|                       PM| 
  E E E E  E            E    E E    E            E    E          E       E E  E            E 
|--------------------------------|-----------------------------------------------------------------| 
|--------------------------------|-----------------------------------------------------------------| 
|--------------------------------|-----------------------------------------------------------------| 
|------------------------------2-|--------------------------------------------2------------0tr1----| 
|-----4-5--------------------4---|--------------------4----------5---------------------------------| 
|-0-0------0------------0--------|--0------------0-----------------------0-0-----------------------| 
| 
|          |-------3-------|        |-------3-------| |------3-------|        |--------3---------| 
| H        E        +E     E Q      E        +E     E E  E          +E   Q    E        +E        E 
|--------------------------------|-----------------------------------------------------------------| 
|--------------------------------|-----------------------------------------------------------------| 
|---------14pb14.5r(14)p==12-----|-14pb14.5r(14)p==12---14pb14.5r==(14)p12---14pb14.5r(14)p=====12-| 
|--------------------------------|-----------------------------------------------------------------| 
|--------------------------------|-----------------------------------------------------------------| 
|--------------------------------|-----------------------------------------------------------------| 


  PM|                   PM------------| 
  E E  E             E  E             E        E  E 
|----------------------------------------------------| 
|----------------------------------------------------| 
|----------------------------------------------------| 
|-------------------------------------------------2--| 
|------4-------------5-------------------------4-----| 
|-0-0-------------------0-------------0--------------| 
| 
|                       |--------3--------| 
| Q    S        +S   E  E     +E         +E   +Q 
|----------------------------------------------------| 
|----------------------14b15r(14)b15====(14)-(14)----| 
|-----14pb14.5r(14)p12-------------------------------| 
|----------------------------------------------------| 
|----------------------------------------------------| 
|----------------------------------------------------| 


    PM--|            PM--| 
    E   E E  E       E    E  E  E 
|------------------------------------| 
|------------------------------------| 
|------------------------------------| 
|----------------------------2--0tr1-| 
|---------4--5-----------------------| 
|---0---0------------0----0----------| 
| 
|   ~~~~~ 
|  +Q     E  E      +E    E  E  E 
|------------------------------------| 
|-(14)r------------------------------| 
|-----------14b16==(14)r-14-12-------| 
|------------------------------14----| 
|------------------------------------| 
|------------------------------------| 


    PM-|      PM|           PM----|           PM-| 
    E  E E E  E E  E  E     E     E  E E      E  E  E E 
|-----------------------|----------------------------------| 
|-----------------------|----------------------------------| 
|-----------------------|----------------------------------| 
|---------------------2-|---------------------------2-0tr1-| 
|--------4-5-------4----|------------4-5-------------------| 
|---0--0------0-0-------|---0-----0-----------0--0---------| 
| 
|   ~~~~ 
|                           |-3-|    |-3--| 
|  +H         Q    E  E    +E   Q    Q    E  +Q     E E 
|-----------------------|-----------------------------0----| 
|-----------------------|-----------13s==20-(20)---\8------| 
|-----------------------|------12--------------------------| 
|-(14)-------12------12-|-(12)-----------------------------| 
|-----------------12----|----------------------------------| 
|-----------------------|----------------------------------| 


  PM|                PM---| 
  E E     E    E     E    E     E         E 
|----------------------------------------------| 
|----------------------------------------------| 
|----------------------------------------------| 
|-----------------------------------------2----| 
|---------4----5----------------4--------------| 
|-0-0----------------0----0--------------------| 
| 
| |-3--|  |---3---|  |---3---|  |-----3------| 
| Q    E  E  E    E  E  E    E  E       E    E 
|-----------12---------------------------------| 
|-----15-16------------------------------------| 
|----------------15-14-12---14-12b12.5---------| 
|--------------------------------------14---12-| 
|----------------------------------------------| 
|----------------------------------------------| 


   PM---|                 PM--|                 PM--|           PM---| 
   E    E     E    E      E   E  E     E        E   E   E   E   E    E   E E 
|---------------------------------------------|-------------------------------| 
|---------------------------------------------|-------------------------------| 
|---------------------------------------------|-------------------------------| 
|--------------------------------2-----0tr1---|----------------------------2--| 
|-------------4----5--------------------------|---------4---5------------4----| 
|--0----0-----------------0---0---------------|-0---0-----------0----0--------| 
| 
|                                                                        ~ 
|  |---3---|  |---3---|          |----3-----|   |--3--| |--3--| |--3---| 
|  E  E    E  E  E    E  +Q      E   E      E   E E   E E E   E E  E   E Q 
|-------------------------------(0)-----------|-------------------------------| 
|-----------------------------------10------8-|-------------------------------| 
|---------------------------------------------|-9-7---9-7---------------------| 
|-14-12---------------------------------------|-----------9---7-9-------------| 
|---------14-12-14---12-(12)\-----------------|-------------------10---7-7----| 
|---------------------------------------------|-------------------------------| 


  PM--|            PM---| 
  E   E   E   E    E    E E E 
|------------------------------------| 
|------------------------------------| 
|------------------------------------| 
|-------------------------2-0tr1-----| 
|---------4---5----------------------| 
|-0---0------------0----0------------| 
| 
| |--3--| |--3--|  |3-|   |---3---| 
| E E   E E E   E +E  Q   Q      +E 
|------------------------------------| 
|------------------------------------| 
|---------------7-(7)-7---7------(7)s| 
|-5-----5-7s9------------------------| 
|---7--------------------------------| 
|------------------------------------| 


   PM---|           PM----|                 PM-|               PM| 
   E    E  E E      E     E  E E            E    E        E  E E E  E   E 
|---------------------------------------|------------------------------------| 
|---------------------------------------|------------------------------------| 
|---------------------------------------|------------------------------------| 
|------------------------------2--------|---------------------------2---0tr1-| 
|----------4-5---------------4----------|-----------------4--5---------------| 
|--0----0-----------0-----0-------------|---0----0-------------0-0-----------| 
| 
|     ~~~~~~~~~~~~~~~~~~~~                                ~~~~ 
|  |3-|    |-3--|   |-3-|    |-3--| 
|  E  Q    Q    E  +E   Q    Q    E        +E   +E       +H         E  +E 
|---------------------------------------|------------------------------------| 
|--------------------------------15b17==|=(15)r(15)b17==(15)-------15r(15)---| 
|-12-12---12---12-(12)-12---12----------|------------------------------------| 
|---------------------------------------|------------------------------------| 
|---------------------------------------|------------------------------------| 
|---------------------------------------|------------------------------------| 


  PM|        PM--|       PM--|            PM-| 
  E E  E E   E   E E E   E   E    E    E  E  E E E 
|----------------------|------------------------------| 
|----------------------|------------------------------| 
|----------------------|------------------------------| 
|--------------------2-|-----------------------2-0tr1-| 
|------4-5---------4---|----------4----5--------------| 
|-0-0--------0---0-----|-0---0------------0--0--------| 
| 
|                                 |3-| 
| Q    Q    +Q     E E   S S S S +E  Q   +Q    Q 
|-----19---(19)\-------|------------------------------| 
|-0---20---(20)\-----0-|-3-0-0-0-(0)------------------| 
|----------------------|------------------------------| 
|----------------------|-------------2---(2)s==9p=====| 
|----------------------|------------------------------| 
|----------------------|------------------------------| 


   PM-|        PM--| 
   E  E  E E   E   E E   E 
|----------------------------| 
|----------------------------| 
|----------------------------| 
|------------------------2---| 
|--------4-5---------4-------| 
|--0--0--------0---0---------| 
| 
|                    |--3--| 
|  Q     Q    +Q     E E   E 
|-------19---(19)\-----------| 
|-------20---(20)\---0-3---0-| 
|----------------------------| 
|-(0)------------------------| 
|----------------------------| 
|----------------------------| 


  PM----|                       PM--| 
  E     E         E     E       E   E   E E 
|----------------------------------------------| 
|----------------------------------------------| 
|----------------------------------------------| 
|---------------------------------------2-0tr1-| 
|-----------------4-----5----------------------| 
|-0-----0-----------------------0---0----------| 
| 
| |---3---|       |---3---|     |--3--| 
| Q       E      +E   E   E     E E   E Q 
|-3b3.5---3b3.5==(3)r-3---------0-----0--------| 
|-------------------------3b3.5---0-----0------| 
|----------------------------------------------| 
|----------------------------------------------| 
|----------------------------------------------| 
|----------------------------------------------| 


  PM|        PM--|            PM-|     PM----| 
  E E  E E   E   E E     E    E  E E E E     E E E 
|--------------------------|---------------------------| 
|--------------------------|---------------------------| 
|--------------------------|---------------------------| 
|------------------------2-|-------------------2-0tr1--| 
|------4-5---------4-------|-------4-5-----------------| 
|-0-0--------0---0---------|--0--0-----0-----0---------| 
| 
|                                      |-3-| 
| Q    Q    +Q     E     E   +Q    Q   S S S E E E 
|-----16---(16)\---------0-|-(0)-----------------------| 
|------------------3b3.5-0-|-(0)---3-------------------| 
|--------------------------|-----------2h3p2p0---------| 
|--------------------------|-------------------0-2-----| 
|--------------------------|---------------------------| 
|--------------------------|---------------------------| 


   PM--|       PM|           PM--|           PM--| 
   E   E  E  E E E E     E   E   E   E   E   E   E   E   E 
|--------------------------|------------------------------------| 
|--------------------------|------------------------------------| 
|--------------------------|------------------------------------| 
|------------------------2-|-------------------------2---0tr1---| 
|---------4--5-----4-------|---------4---5----------------------| 
|--0---0-------0-0---------|-0---0-----------0---0--------------| 
| 
|                            |--3--| |--3--| |--3--| |---3----| 
| +Q      Q    E E Q         E E   E E E   E E E   E E E      E 
|--------16\-----0---------|-0----------------------------------| 
|------------------3b3.5---|---3---0-------------------5--------| 
|--------------------------|---------3-2---0-2-0---2s6--------6-| 
|-(2)/---------------------|------------------------------------| 
|--------------------------|------------------------------------| 
|--------------------------|------------------------------------| 


  PM--|       PM-| 
  E   E  E E  E  E       E     E 
|-----------------------------------| 
|-----------------------------------| 
|-----------------------------------| 
|------------------------------2----| 
|--------4-5-------------4----------| 
|-0---0-------0--0------------------| 
| 
|     ~~~~~~~~~~~ 
|             |-3--|     |---3---| 
| E   Q.     +Q    E    +E   E   E 
|-----------------------------------| 
|-7b8-5------(5)---7b8==(7)r-5------| 
|--------------------------------7--| 
|-----------------------------------| 
|-----------------------------------| 
|-----------------------------------| 


  PM--|       PM-|              PM--|           PM--| 
  E   E  E E  E  E E   E        E   E   E   E   E   E    E E 
|-----------------------------|------------------------------| 
|-----------------------------|------------------------------| 
|-----------------------------|------------------------------| 
|------------------2---0tr1---|----------------------------2-| 
|--------4-5------------------|---------4---5------------4---| 
|-0---0-------0--0------------|-0---0-----------0---0--------| 
| 
|     ~~~~~~~~~~~ 
|                  |---3----|   |--3--| |--3--| |--3--| 
| E   Q.     +Q    E E      E   E E   E E E   E E E   E  E E 
|-----------------------------|------------------------------| 
|-7b8-5------(5)---8-5--------|-8p5-----8p5-----8p5-----10-8-| 
|---------------------------7-|-------7-------7-------7------| 
|-----------------------------|------------------------------| 
|-----------------------------|------------------------------| 
|-----------------------------|------------------------------| 


  PM|              PM-| 
  E E  E      E    E  E E E 
|------------------------------*| 
|------------------------------*| 
|------------------------------*| 
|-----------------------2-0tr1-*| 
|------4------5----------------*| 
|-0-0--------------0--0--------*| 
| 
| Q    E     +E   +H 
|------------------------------*| 
|-----10b12r(10)-(10)----------*| 
|-9----------------------------*| 
|------------------------------*| 
|------------------------------*| 
|------------------------------*|  
  

cifra enviadasem correções
enviado porenviada por:jessgomes
top 5 | steely dan
top pop music
Outras músicas do artista letras do(a) Steely Dan
Top cifras »Top artistas »
Petaxxon Comunicação Online
Cifras.com.br - Melhor e mais completo site de cifras e tablaturas do Brasil
Mais de 1 milhão de acordes de músicas cadastradas desde 2003
As informações contidas no nosso site são colaborações de seus usuários e podem conter erros, sendo assim, não nos responsabilizamos sobre nenhuma destas.
close
menos
mais
close
Cor dos acordes:

Cor da letra:

 

save
close
close
 
redimensionar