Cifras e Tablaturas
Stef Chura
Cifras Cancelar Versão de Impressão

Stef Chura - You

Tom:

  			Verse 

e|------------------------|------------------------| 
B|------------------------|------------------------| 
G|----0--------0--------0-|----0--------6--------0-| 
D|-------2--------2-------|-------4--------4-------| 
A|-3--------3--------3----|-5--------5--------5----| 
E|------------------------|------------------------| 

Pre-Chorus 

e|-------2--------2-------|-2--------2--------2----| 
B|------------------------|------------------------| 
G|----0--------0--------0-|-------0--------0-------| 
D|------------------------|------------------------| 
A|------------------------|------------------------| 
E|-3--------3--------3----|----3--------3--------3-| 

e|------------------------|----------5-------------| 
B|-------6--------6-------|-6-----------------6----| 
G|----0--------0--------0-|-------0--------0-------| 
D|------------------------|------------------------| 
A|------------------------|------------------------| 
E|-6--------6--------6----|----6--------6--------6-| 


Chorus 

e|-0--0--0--0-0--0--0--0--0-0-|-0--0--0--0-----------| 
B|-1--1--1--1-1--1--1--1--1-1-|-3--3--3--3-----------| 
G|-0--0--0--0-0--0--0--0--0-0-|-0--0--0--0-----------| 
D|-2--2--2--2-2--2--2--2--2-2-|-4--4--4--4-----------| 
A|-3--3--3--3-3--3--3--3--3-3-|-5--5--5--5-----------| 
E|----------------------------|----------------------| 

Song Structure 

Verse 8x 
Pre-Chorus 6x 
Chorus 4x 
verse 12x 
Pre-Chorus 6x 
Chorus 4x 
Verse 6x (let last note ring) 

************************************ 
    	
fixar
fixar inscrever-se

enviado porenviado por: marcnagel
cifra enviadaCorrigida por: sem correções
logo top cifrasComente
ico música do artistaMúsicas deste artista
ico curtiuCurtiu?
ico destaqueDestaque
Petaxxon Comunicação Online

Cifras.com.br - Melhor e mais completo site de cifras e tablaturas do Brasil Mais de 1 milhão de acordes de músicas cadastradas desde 2003
As informações contidas no nosso site são colaborações de seus usuários e podem conter erros, sendo assim, não nos responsabilizamos sobre nenhuma destas.

close
menos
mais
close
Cor dos acordes:

Cor da letra:

close
Alinhar acordes a direita Alinhar acordes a esquerda Alinhar acordes em baixo Alinhar acordes no topo
close
  Mostrar todos os acordes Esconder acordes muito fáceis Esconder acordes fáceis Esconder acordes intermediários
redimensionar
glossário