Cifras e Tablaturas
Stellastarr

Stellastarr

My Coco

Cifras Cancelar Versão de Impressão Print

Stellastarr - My Coco

Tom: F

  			 F                                 Bb5 E   
E:----------------|----------------|----------------|----------------| 
B:----------------|----------------|----------------|----------------| 
G:----------------|----------------|----------------|----------------| 
D:----3-------3---|----3-------3---|----3-------3---|----3-----------| 
A:----------------|--------------0-|1-1---1-1-1---1-|----------1-1-0-| 
E:1-1---1-1-1---1-|1-1---1-1-1-----|----------------|3-3---3-3-------| 
 
Solo 1 (2:00)Gtr 2 
E:----------------|----------------|--------------------| 
B:1--1-1-1-----1--|1-1-1-----3--3-3|--3--3-3-3-3-/--(15)| 
G:---------3-2----|------3-2-------|--------------------| 
D:----------------|----------------|--------------------| 
A:----------------|----------------|--------------------| 
E:----------------|----------------|--------------------| 
 
Solo 2 (2:40)    D5                    Bb5 
 
E:--5---5---6---5---5/-|---12----12----13----12----12\-| 
B:6---6---6---6---6--/-|13----13----13----13----13---\-| 
G:---------------------|-------------------------------| 
D:---------------------|-------------------------------| 
A:---------------------|-------------------------------| 
E:---------------------|-------------------------------| 
 
D5                    C5 
 
E:--5---5---6---5---5/-|8-8-8-8-/10-10-10-10-/12-12-12-12-/13-13-13-13| 
B:6---6---6---6---6----|----------------------------------------------| 
G:---------------------|----------------------------------------------| 
D:---------------------|----------------------------------------------| 
A:---------------------|----------------------------------------------| 
E:---------------------|----------------------------------------------| 
 
E:/15---------------| 
B:------------------| 
G:------------------| 
D:------------------| 
A:------------------| 
E:------------------| 
 
E:----------------------| 
B:----------------------| 
G:----------------------| 
D:3-3-3-3-3-3-3-3-3-3-2-| 
A:----------------------| 
E:----------------------| 
 
E:--------------------|--------------------|--------------------| 
B:--------------------|--------------------|--------------------| 
G:--------------------|--------------------|--------------------| 
D:3-3-3-3-3-3-3-2-3-5-|3-3-3-3-3-3-3-2---2-|3-3-3-3-3-3-3-2---2-| 
A:--------------------|----------------3---|----------------3---| 
E:--------------------|--------------------|--------------------| 
 
E:--------------------|--------------------|------------------| 
B:--------------------|--------------------|------------------| 
G:--------------------|--------------------|------------------| 
D:3-3-3-3-3-3-3-2---2-|3-3-3-3-3-3-3-2-3-5-|5-5-5-5-5-3-2-3---| 
A:----------------3---|--------------------|------------------| 
E:--------------------|--------------------|------------------| 
 
E:------------------|------------------|-------------------| 
B:------------------|------------------|-------------------| 
G:------------------|2-2-2-2-2-0---0---|3-3-3-3-3-2-0-2--/-| 
D:5-5-5-5-5-3-2-3---|------------3-----|-------------------| 
A:------------------|------------------|-------------------| 
E:------------------|------------------|-------------------| 
 
E:----------------------------|----------------------------| 
B:----------------------------|----------------------------| 
G:10-10-10-10-10-10-10-9----9-|10-10-10-10-10-10-10-9----9-| 
D:-----------------------10---|-----------------------10---| 
A:----------------------------|----------------------------| 
E:----------------------------|----------------------------| 
 
E:----------------------------|-----------------------------| 
B:----------------------------|-----------------------------| 
G:10-10-10-10-10-10-10-9----9-|10-10-10-10-10-10-10-9-10-12-| 
D:-----------------------10---|-----------------------------| 
A:----------------------------|-----------------------------| 
E:----------------------------|-----------------------------| 
 
E:--------------------------|--------------------------| 
B:10-10-10-10-10----13------|10-10-10-10-10----13------| 
G:---------------10----12---|---------------10----12---| 
D:--------------------------|--------------------------| 
A:--------------------------|--------------------------| 
E:--------------------------|--------------------------| 
 
E:--------------------------|---------------------------| 
B:10-10-10-10-10----13------|10-10-10-10-10-13-13-13-13-| 
G:---------------10----12---|---------------------------| 
D:--------------------------|---------------------------| 
A:--------------------------|---------------------------| 
E:--------------------------|---------------------------| 
 
E:------------------------------|------------------------------| 
B:13-13-13-13-13-13-13-13-10----|13-13-13-13-13-13-13-13-10----| 
G:---------------------------12-|---------------------------12-| 
D:------------------------------|------------------------------| 
A:------------------------------|------------------------------| 
E:------------------------------|------------------------------| 
 
E:------------------------------|-------------------------------| 
B:13-13-13-13-13-13-13-13-10----|13-13-13-13-13-13-13-/15-15-15-| 
G:---------------------------12-|-------------------------------| 
D:------------------------------|-------------------------------| 
A:------------------------------|-------------------------------| 
E:------------------------------|-------------------------------| 
 
E:13-13-13-13-13-13-13-15-15---|13-13-13-13-13-13-13-15-15---| 
B:13-13-13-13-13-13-13-13-13---|13-13-13-13-13-13-13-13-13---| 
G:-----------------------------|-----------------------------| 
D:-----------------------------|-----------------------------| 
A:-----------------------------|-----------------------------| 
E:-----------------------------|-----------------------------| 
 
E:17-17-17-17-17-17-17-17-17-17-17-17|17-17-17-17-17-17-17-17\-----| 
B:17-17-17-17-17-17-17-17-17-17-17-17|17-17-17-17-17-17-17-17\-----| 
G:-----------------------------------|-----------------------------| 
D:-----------------------------------|-----------------------------| 
A:-----------------------------------|-----------------------------| 
E:-----------------------------------|-----------------------------| 
    	
fixar
fixar inscrever-se

enviado porenviado por: Fashion_Girl
cifra enviadaCorrigida por: sem correções
logo top cifrasComente
ico música do artistaMúsicas deste artista
ico curtiuCurtiu?
ico destaqueDestaque
Petaxxon Comunicação Online

Cifras.com.br - Melhor e mais completo site de cifras e tablaturas do Brasil Mais de 1 milhão de acordes de músicas cadastradas desde 2003
As informações contidas no nosso site são colaborações de seus usuários e podem conter erros, sendo assim, não nos responsabilizamos sobre nenhuma destas.

close
menos
mais
close
Cor dos acordes:

Cor da letra:

close
Alinhar acordes a direita Alinhar acordes a esquerda Alinhar acordes em baixo Alinhar acordes no topo
close
  Mostrar todos os acordes Esconder acordes muito fáceis Esconder acordes fáceis Esconder acordes intermediários
redimensionar
glossário