Cifras e Tablaturas
Steriogram

Steriogram

Walkie Talkie Man

Cifras Cancelar Versão de Impressão Print

Steriogram - Walkie Talkie Man

Tom:

  • 0:00 / 0:00
  			walkie talkie man 
 
this song is on some baseball videogame. 
in STANDARD TUNING 
 
intro! x2 
|-----------------------------------| 
|-----------------------------------| 
|-----------------------------------| 
|-----------------------------------| 
|----------0-0-3-4-5-5-4-3-2-2------| 
|--0-0-3-4---------------------3-4--| 
 
|-----------------------------------| 
|-----------------------------------| 
|-----------------------------------| 
|-----------------------------------| 
|----------0-0-3-4-5-5-4-3-2-2-2-2--| 
|--0-0-3-4--------------------------| 
 
verse - all palm muted 
|-----------------------------------| 
|-----------------------------------| 
|-----------------------------------| 
|-----------------------------------|x4 
|----------0-0-3-4-5-5-4-3-2-2------| 
|--0-0-3-4---------------------3-4--| 
 
Chorus 
|--------------------------------------| 
|--------------------------------------| 
|--------2------------2-2-2-2----------| 
|-----2--0--4------2--0-0-0-0-4-4-4-4--|x2 
|--2--0-----2---2--0----------2-2-2-2--| 
|--0------------0----------------------| 
 
end on 
|-------| 
|-------| 
|--2-2--| 
|--0-0--| 
|-------| 
|-------| 
 
 ~ enjoy ~ 
 
 
 
 
 
 
 
 
 
 

    	

enviado porenviado por: weezer pillows
cifra enviadaCorrigida por: sem correções
logo top cifrasComente
ico música do artistaMúsicas deste artista
ico curtiuCurtiu?
ico destaqueDestaque
Petaxxon Comunicação Online

Cifras.com.br - Melhor e mais completo site de cifras e tablaturas do Brasil Mais de 1 milhão de acordes de músicas cadastradas desde 2003
As informações contidas no nosso site são colaborações de seus usuários e podem conter erros, sendo assim, não nos responsabilizamos sobre nenhuma destas.

close
menos
mais
close
Cor dos acordes:

Cor da letra:

close
Alinhar acordes a direita Alinhar acordes a esquerda Alinhar acordes em baixo Alinhar acordes no topo
close
  Mostrar todos os acordes Esconder acordes muito fáceis Esconder acordes fáceis Esconder acordes intermediários
redimensionar
glossário